Guitar Tabs, Chords and Lyrics
Login is temporarily disabled for some users. Do not panic. Will be back in an hour or two. DO NOT REREGISTER!!


Song for You  Chicago

SONG FOR YOU - CHICAGO
Tabbed by:Aaron James Bodoraya (pandacan,manila)
Email:combat_ron33@yahoo.com
Tuning:standard
| / slide up
| h hammer-on
| ~ vibrato
INTRO:
[G]  
 
 e|-------------------------------------------------------|
 B|--------------3----------0--------------3----------0---|
 G|--------0-----------0h2-----------0-----------0h2------|
 D|-----0-----0-----0-------------0-----0-----0-----------|
 A|-------------------------------------------------------|
 E|--3-------------------------3--------------------------|

VERSE 1:
[G] [Em] [C] [D]  
 
 e|-------------------------------------------------------|
 B|--------3-----------0-----------1-----------3----------|
 G|--------0-----------0-----------0--------2-----2-------|
 D|-----0-----0-----2-----------2-----2--0----------------|
 A|-----------------------2--3----------------------------|
 E|--3-----------0----------------------------------------|

WANT YOU TO KNOW I’M A MAN
[G] [Em] [C] [D]  
 
 e|-------------------------------------------------------|
 B|--------3-----------0-----------1-----------3----------|
 G|--------0-----------0-----------0--------2-----2-------|
 D|-----0-----0-----2-----------2-----2--0----------------|
 A|-----------------------2--3----------------------------|
 E|--3-----------0----------------------------------------|

SAY THE WORDS AND I’LL SAY IT AGAIN
[G] [Em] [C] [D]  
 
 e|-------------------------------------------------------|
 B|--------3-----------0-----------1-----------1----------|
 G|--------0-----------0-----------0-----------2----------|
 D|-----0-----0-----2-----------2-----------2-----2-------|
 A|-----------------------2--3--------3--0----------------|
 E|--3-----------0----------------------------------------|

WANT YOU TO KNOW I’M A MAN YOU CAN DE-
[D] [G] [C] [D]  
 
 e|-------------------------------------------------------|
 B|--------3-----------0----------------------------------|
 G|-----2--------------0-----5/7--7--7--------------------|
 D|--0--------0-----0-----0—-5/7--7--7--------------------|
 A|--------------------------3/5--5--5--------------------|
 E|--------------3----------------------------------------|

PEND UPON THAT’S ALL I AM
VERSE 2:
[G] [Em] [C] [D]  
 
 e|-------------------------------------------------------|
 B|--------3-----------0-----------1-----------3----------|
 G|--------0-----------0-----------0--------2-----2-------|
 D|-----0-----0-----2-----------2-----2--0----------------|
 A|-----------------------2--3----------------------------|
 E|--3-----------0----------------------------------------|

WANTED TO SHOW IM A MAN
[G] [Em] [C] [D]  
 
 e|-------------------------------------------------------|
 B|--------3-----------0-----------1-----------3----------|
 G|--------0-----------0-----------0--------2-----2-------|
 D|-----0-----0-----2-----------2-----2--0----------------|
 A|-----------------------2--3----------------------------|
 E|--3-----------0----------------------------------------|

SAY THE WORDS AND I’LL TELL IT AGAIN
[G] [Em] [C] [D]  
 
 e|-------------------------------------------------------|
 B|--------3-----------0-----------1-----------1----------|
 G|--------0-----------0-----------0-----------2----------|
 D|-----0-----0-----2-----------2-----------2-----2-------|
 A|-----------------------2--3--------3--0----------------|
 E|--3-----------0----------------------------------------|

WANTED TO SHOW I’M A MAN YOU CAN RE-
[D] [G] [C] [D]  
 
 e|-------------------------------------------------------|
 B|--------3-----------0----------------------------------|
 G|-----2--------------0-----5/7--7--7--------------------|
 D|--0--------0-----0-----0—-5/7--7--7--------------------|
 A|--------------------------3/5--5--5--------------------|
 E|--------------3----------------------------------------|

-LY UPON THAT’S ALL I AM I AM A
CHORUS:
[F] [G] [C] [A]  
 
 e|-------------------------------------------------0-----|
 B|-------------------------3-----------0-----------2-----|
 G|----------1--------------0-----------1--------2-----2--|
 D|----------2-----------0-----0-----0-----0--------------|
 A|-------3-----3-----------------3-----------0-----------|
 E|----1-----------1--3-----------------------------------|

MAN THAT YOU CAN COUNT ON CALL OUT MY
[D] [E] [A]  
 
 e|--------2-----------0----------------------------------|
 B|--------3-----------0-----------------2----------------|
 G|-----2-----2-----1-----1--------2-----------2----------|
 D|--0--------------------------2-----2-----2-----2-------|
 A|--------------------------0----------------------------|
 E|--------------0----------------------------------------|

NAME AND I’LL BE THERE I’M A
[G] [A] [D] [Bb]  
 
 e|--------3-----------0-----------2-----------1----------|
 B|--------0-----------2-----------3-----------3----------|
 G|-----0-----0-----2-----2-----2-----2-----3-----3-------|
 D|--------------------------0----------------------------|
 A|--------------0-----------------------1----------------|
 E|--3----------------------------------------------------|

MAN YOU CAN BE SURE OF BABY IT’S YOUR
[F] [G] [C] [A] [Dsus] [D]  
 
 e|--------1-----------------------0-----------0-----------3------2--|
 B|--------1-----------3-----------1-----------2-----------3------3--|
 G|-----2-----2--------0--------0-----0-----2-----2-----2-----2---2--|
 D|-----------------0-----0--------------------------0------------0--|
 A|--------------------------3-----------0---------------------------|
 E|--1-----------3---------------------------------------------------|

LOVE THAT TAKES ME THERE TAKES ME THERE
ADLIB:
 
 e|---------------------------------7-8-10-10/12-10-10~~-------------|
 B|--5-7-8~~---8--8-8h10--8-8~~--------------------------------------|
 G|------------------------------------------------------------------|
 D|------------------------------------------------------------------|
 A|------------------------------------------------------------------|
 E|------------------------------------------------------------------|
 e|--7-8-10-10/12--10--8--7--8--7---------------------7--10-8--7-8---|
 B|----------------------------------10-8-10~-----8-10---------------|
 G|------------------------------------------------------------------|
 D|------------------------------------------------------------------|
 A|------------------------------------------------------------------|
 E|------------------------------------------------------------------|
 e|--7---------------------------------------------------------------|
 B|-----10---8--10---------------------------------------------------|
 G|------------------5/7--7--7---------------------------------------|
 D|------------------5/7--7--7---------------------------------------|
 A|------------------3/5--5--5---------------------------------------|
 E|------------------------------------------------------------------|


Important: The song above is NOT stored on the Chordie server. The original song is hosted at www.guitaretab.com. Chordie works as a search engine and provides on-the-fly formatting. Chordie does not index songs against artists'/composers' will. To remove this song please click here.

Text color:
Chord color:
Chord grids: 
Font size:    
Page size: 

A Bb C D Dsus E Em F G
Rate #1 of 4 versions

Jango Player

Login - add to songbook

SHARE PAGE  



You need to log in to post comments