Guitar Tabs, Chords and Lyrics
Login is temporarily disabled for some users. Do not panic. Will be back in an hour or two. DO NOT REREGISTER!!


Byblos  Chicago

As recorded by Chicago
(From the 1974 Album CHICAGO VII)
Transcribed by Tone Jones
Words and Music by Terry Kath
[Dm7]x 5 7 5 6 5 Em7
x 7 9 7 8 7 Ebmaj7
x 6 8 7 8 6 Fmaj7
x 8 10 9 10 8
[Bbmaj7]6 x 7 7 6 x Asus2/E
x x 2 2 0 0 Am
x 0 2 2 1 0 Cmaj7
x 3 2 0 0 0
Fmaj7open
x x 3 2 1 0 Bm7
[7]x [9]7 [7]6 [7]7 [7]7 [7]7 [E9]Am7
[5] [7] [5] [5] [5] [5]  
[Cm7]x 3 5 3 4 3 Asus2
x 0 2 2 0 0 A
x 0 2 2 2 0 Asus4
x 0 2 2 3 x
[A5]x 0 2 2 x x Abmaj7
x x 6 8 8 8 Bbmaj7VIII
x x 8 10 10 10 Dbmaj7
9 x 10 10 9 x
[Am/F#]x x 5 6 0 0 Cbmaj7
x x 9 11 11 11 Gbmaj7
x 9 11 10 11 x Dbmaj7(type 2)
9 9 10 10 x x
N.C.
0 0 0 0 0 0
Gtr I (E A D G B E) - 'Terry Kath-Acoustic Gtr.(Steel)'
Gtr II (E A D G B E) - 'Terry Kath-Acoustic Gtr (Nylon)'
Gtr III (E A D G B E) - 'Terry Kath-Acoustic Gtr.(Steel)'
Gtr IV (E A D G B E) - 'Terry Kath-Slight Dist Gtr'
Gtr V (E A D G B E) - 'Terry Kath-Slight Dist Gtr.'
Gtr VI (E A D G B E) - 'Terry Kath-Electric Gtr (Clean Tone)'
Intro
Moderately Q=126
[Am7] [Cm7] [Am7] [Cm7] 
[4/4] Gtr III
~~~~~~
|--3--|
W Q E E E E E E E +E E S S S S +H
 
 |-------------------|----------------------|--------------------------|
 |-------------------|----------------------|--------------------------|
 |-------------------|------------5-7-7-5-5-|-(5)----------------------|
 |-------------------|--------7-------------|-----7-5-7-7-7-(7)--------|
 |-------------------|----------------------|--------------------------|
 |-------------------|----------------------|--------------------------|

|
| Gtr I
| H. E E +W Q Q Q E E
 
 |-^5----------------|----------------------|-------5------------------|
 |-^5-------------^4-|-(4)------------------|--5-------------5------4--|
 |-^5-------------^3-|-(3)------------------|--5--------------------3--|
 |-^5-------------^5-|-(5)------------------|--5--------------------5--|
 |-^7-------------^3-|-(3)------------------|--7--------------------3--|
 |-^5----------------|----------------------|--5-----------------------|

|
| Gtr II
| E E Q E E E E +Q. E E E Q E E Q E E E E
 
 |--5----5----5------|----------------------|--------------------------|
 |--5----5----5----4-|-(4)----------4-4-----|--5----5-----------5---4--|
 |--5----5----5----3-|-(3)----------3-3-----|--5----5-----------5---3--|
 |--5----5----5----5-|-(5)----------5-5-----|--5----5-----------5---5--|
 |-----------------3-|-(3)------3-------3---|-----------------------3--|
 |-------------------|----------------------|--5----5-----------5------|

~~~
 
 |----6----| |----6----|

+H S S S S S S S S S S S S
 
 |----------------------------------------|
 |----------------------------------------|
 |----------------------------------------|
 |-(7)----------------5-----5-----5-------|
 |----------------5h7---5h7---5h7---7s5p3-|
 |----------------------------------------|

|
| |--3---|
| +E E E H.
 
 |-----3---3------------------------------|
 |-(4)-------4----------------------------|
 |-(3)------------------------------------|
 |-(5)------------------------------------|
 |-(3)------------------------------------|
 |----------------------------------------|

|
| +E E E E E Q.
 
 |-----------3----------------------------|
 |-(4)-------4----4-----------------------|
 |-(3)-------3----3-----------------------|
 |-(5)------------------5-----------------|
 |-(3)---3------3-------------------------|
 |----------------------------------------|

[Am7] [Cm7] |-3-|
S S S S H E E Q S S S S S S S S S S S S S
 
 |----------------------|--------------------------------------|
 |----------------------|-------------------------------8h10---|
 |----------------------|-------------------------5-7s9--------|
 |----------------------|---------------------5h7--------------|
 |-5p3-------------3\---|-------------3h5s=7-------------------|
 |-----5p3-5------------|-------3h4h5--------------------------|

|
| Q. E E E E E +E E E E +Q Q
 
 |---------------5------|-------3------------------------------|
 |-------------5------4-|-(4)---------4---(4)-------x----------|
 |-----------5--------3-|-(3)-----------------------x----------|
 |--------------------5-|-(5)-----------------------x----------|
 |--------------------3-|-(3)-3---------------------x----------|
 |-5--------------------|--------------------------------------|

|
| E E Q E E E E +Q E E +Q. E
 
 |----------------------|-------3------------------------------|
 |-5-------5-----5----4-|-(4)----------------------------------|
 |-5-------5-----5----3-|-(3)---------3---(3)------------------|
 |-5-------5-----5----5-|-(5)---------------------------5------|
 |--------------------3-|-(3)----------------------------------|
 |-5-------5-----5------|--------------------------------------|

[Am7]W[Cm7]
~~~
S S a Q. S S S S S S S S
 
 |-8-10-10s12-------8--10-7-8p7--------|
 |------------------------------8-10-7-|
 |-------------------------------------|
 |-------------------------------------|
 |-------------------------------------|
 |-------------------------------------|

|
| E E E E +Q E E
 
 |-------------5-----------------------|
 |---------------5-(5)-------------4---|
 |----------5----------------------3---|
 |---------------------------------5---|
 |---------------------------------3---|
 |-5-----------------------------------|

|
| E E E E E E E E
 
 |-------------------------------------|
 |-5--------5----5--------5--------4---|
 |-5--------5----5--------5--------3---|
 |-5--------5----5--------5--------5---|
 |---------------------------------3---|
 |-5--------5----5--------5------------|

Verse
[C#m7] Gtr[Dm7] I[Em7]
W Q E E E E E E
| | | | | | |
/ x / / / x /
Gtr III
S S S S E S S S S S S E E H +E E E E
 
 |-----------------------------||-------------------|
 |--8p=7-----------------------||-------------------|
 |-------9---5-4-5p4-----------||-------------------|
 |-------------------7-5p4-5-4-||-------------------|
 |-----------------------------||-5------(5)s3s5-7\-|
 |-----------------------------||-------------------|

|
| +Q. E E E E E W
 
 |-----------------------------||-------------------|
 |-(4)-------------4-------5---||-------------------|
 |-(3)-------------3-------4---||-------------------|
 |-(5)-------------5-------6---||-------------------|
 |-(3)---------3-----------4---||-------------------|
 |-----------------------------||-------------------|

|
| Gtr II
| E E Q E E E E Q E E E E E E
 
 |-----------------------------||-------------------|
 |-------4---4-----4-------5---||-6----6---------8--|
 |-------3---3-----3-------4---||-5----5---------7--|
 |-------5---5-----5-------6---||-7----7---------9--|
 |-------3---3-----3-------4---||-5----5---------7--|
 |-----------------------------||---------5--5------|

E E E E Q Q [Ebmaj7]Q E E E E E [Fmaj7] E E E E E Q Q
| | | | | | | | | | | | | |
/ / / / / / / x / x / x / /
Gtr III
W W H Q. T T T T
 
 |----------------|-----------------|-----------------------5-|
 |----------------|-----------------|---------------------6---|
 |----------------|-----------------|-------------------7-----|
 |----------------|-----------------|-----------------8-------|
 |----------------|-----------------|-------------------------|
 |----------------|-----------------|-------------------------|

|
| Gtr II
| E E E E E E Q Q E E E E E E E E E E Q Q
 
 |----------------|-----------------|-------------------------|
 |---8---8-----9--|-8----8-8-8---10-|---10-----10-------------|
 |---7---------7--|-7----7-7-7----9-|----9------9-------------|
 |---9-------9----|-8----8-8-8---10-|---10-----10-------------|
 |---7-----7------|-6----6--------8-|----8------8-------------|
 |-------7--------|--------6-6------|--------8------8---------|

[Bbmaj7]Q E E E E E [Dm7]E E E E E Q Q
| | | | | | | | | |
/ x / / / x / / / /
Gtr III
a E Q. +Q. E +W
 
 |-5h6p5------(5)-------|-------------------|
 |--------------------6-|-(6)---------------|
 |----------------------|-------------------|
 |----------------------|-------------------|
 |----------------------|-------------------|
 |----------------------|-------------------|

|
| G
| W W
 
 |----------------------|-------------------|
 |----------------------|-------------------|
 |----------------------|-------------------|
 |----------------------|-------------------|
 |----------------------|-------------------|
 |----------------------|-------------------|

|
| Gtr II
| Q E E E E E E E E E E E E E E
 
 |----------------------|---------5---------|
 |---6------6--6--6---6-|-----6-------------|
 |---7------7--7--7---5-|-----5-----5-------|
 |---7------7--7--7---7-|-----7-------7---0-|
 |--------------------5-|-----5---------0---|
 |---6------6--6--6-----|-------------------|

[Asus2]W [Am] W
W E E E E E E E E
 
 |--------------------|----------------------|
 |--------------------|-----8---7------------|
 |--------------------|-----7---7--5---------|
 |--------------------|---------------7-5----|
 |--------------------|-------------------7--|
 |--------------------|----------------------|

|
|tr I
| E E E E +Q E E +E E E E +H
 
 |---0----------------|-----5-5-5-(5)--------|
 |-0---0-1-(1)------5-|-(5)-5-5-5-(5)--------|
 |------------------5-|-(5)-5-5-5-(5)--------|
 |---------------/7---|-------7-7-(7)--------|
 |--------------------|----------------------|
 |--------------------|----------------------|

|
| E E E E E E E E +E E Q E E E E
 
 |--------------------|----------------------|
 |-0-----1----------5-|-(5)-------------5----|
 |---2------2-------5-|-(5)-7-5----5---------|
 |-----2-------2----7-|-(7)-----------7---7--|
 |----------------0---|----------------------|
 |--------------------|----------------------|

[Dm7]Q E E E E E [Em7]E E E E E Q Q
| | | | | | | | | |
/ x / / / x / / / /
Gtr III
Q Q H W
 
 |----------------|-----------------|
 |----------------|-----------------|
 |----------------|-----------------|
 |----------------|-----------------|
 |-5--------------|-----------------|
 |----x-----------|-----------------|

|
| Gtr II
| Q E E E E E E E E E E E E E E
 
 |--------5-------|-----------------|
 |----6---6-6---8-|---8---8-------8-|
 |----5---5-5---7-|---7---7---------|
 |----7-----7---9-|---9---9-----9---|
 |-5--------------|-----------7-----|
 |----------------|-----------------|

[Ebmaj7]Q E E E E E [Fmaj7] E E E E E Q Q
| | | | | | | | | | |
/ / / / x / x / x / /
Q E. S Q E E W
 
 |-----6----6-6--------|----------------------|
 |-----8----8-8-----10-|----------------------|
 |-------------------9-|----------------------|
 |------------------10-|----------------------|
 |-------------------8-|----------------------|
 |---------------------|----------------------|

|
| E E E E E E E E E E E E E E Q
 
 |------------6------8-|----------------------|
 |-8---8------8-8---10-|---10---------10------|
 |-7---7------7-7----9-|----9----------9------|
 |-8---8--------8------|---10-10-10------10---|
 |---------------------|----------------------|
 |---------------------|----------------------|

[Bbmaj7] [Dm7] Gtr
Q E E E E E E E E E E Q Q
| | | | | | | | | |
/ x / / / x / / / /
Q E. S E Q E W
 
 |----------5-5-------|-------------------|
 |----------6-6-----6-|-------------------|
 |------------------5-|-------------------|
 |------------------7-|-------------------|
 |------------------5-|-------------------|
 |--------------------|-------------------|

|
| E E E E E E E E +E E E Q. E E
 
 |------------5-------|-----5-------------|
 |-6---6------6-6---5-|-(5)---6-------6---|
 |-7---7------7-7---6-|-(6)---5-------5---|
 |-7---7------------7-|-(7)---7---------0-|
 |--------------------|-------------------|
 |--------------------|-------------------|

[Asus2/E]I[Am]
E Q E Q. E +E E H E E
| | | | | | | | |
[/] [/] [/] [/] [/] [/] [/] [/] [/]  
E E E E E E E E +W
 
 |----------------0-|-(0)----------------||
 |-0-----1----------|--------------------||
 |---2-----2--------|--------------------||
 |-----2------2-----|--------------------||
 |--------------0---|--------------------||
 |------------------|--------------------||

|
| E E E E E Q E +Q E E E E E E
 
 |------------------|---------------5----||
 |-0-----1----------|-------5-------5----||
 |---2-----2--------|-------5---5---5----||
 |-----2------2-----|--------------------||
 |------------------|---------7---7------||
 |----------------5-|-(5)----------------||

Bridge
Cmaj7 Fmaj7open
Gtr I
E E E E +E E E E E E E E +E E E E E E E E +E E E E Q E E E E Q
| | | | | | | | | | | | | | | | | | | | | | | | | | | | | |
[/] [/] [/] [/] [/] [/] [/] [/] [/] [/] [/] [/] [/] [/] [/] [/] [/] [/] [/] [/] [/] [/] [/] [/] [/] [/] [/] [/] [/] [/] 
Gtr II
E Q E E Q E E E E E E E E E Q E E Q. E E Q E Q E E
 
 |------------------|---3--------------|-------0--0------0-|---0---0-0---0---|
 |-5-----5--5-----5-|---3---5--5---5---|-1-----1--1------1-|---1---1-1---1---|
 |-4-----4--4-----4-|---4------4---4---|-2-----2--2------2-|---2---2-2---2---|
 |-5-5---5--5-----5-|----------5---5---|-3-----------------|-----------------|
 |------------------|------------------|-------------------|-----------------|
 |------------------|------------------|-------------------|-----------------|

[Dm7]E E E E +E E E E Q E E E E E E [Bm7]E E E E E E E [E9]E
| | | | | | | | | | | | | | | | | | | | | | |
/ / / / / / / / / / / / / / x / / / / / / x /
E E E E E E E E E E E E Q E E E E E E E E E E
 
 |------------------|-----------------|-----------------|
 |-6--------6-6---6-|---6---6-6---6---|-7-7---7---7---7-|
 |-5-5------5-5---5-|---5---5-5---5---|-7-7---7---7---7-|
 |-7-7------7-7---7-|---7---7-7---7---|-7-7---7---7---6-|
 |-5-5---5--5-5---5-|---5---5-5---5---|-----------------|
 |------------------|-----------------|-----------------|

Am7 Fmaj7open
E E E E +E E E E Q E E E E E E +E E Q Q E E
| | | | | | | | | | | | | | | | | | | | |
x / / / / / / x / x x / / x / / / / / / /
+E E Q E E E E H E E E E E E Q E E E E
 
 |-------7------------|----------------|----0-0--0---0---|
 |-(7)---7----7---7---|-5------5-----1-|----1-1--1-1-1---|
 |-(7)-7------7---7---|-5--------5---2-|----2-2--2-2-2---|
 |-(6)--------6---6---|-5------------3-|-----------3-----|
 |--------------------|----------------|-----------------|
 |--------------------|----------------|-----------------|

[Cmaj7]E E E E E E E [Dm7]E E E Q E E Q [Bbmaj7]Q E E E E E [Ebmaj7]E +E E Q +E E E E
| | | | | | | | | | | | | | | | | | | | | | | | | | | |
/ / / / x / x / x / / / / / / / / / / x / / / / / / / x
E E E E E E E E E E Q E E Q Q E E E E E E +E Q E Q Q
 
 |-----------------|---------------|----------------|--------------------|
 |-5-5-5-5---5---6-|---6-6----6----|-6----6-6-6---8-|-(8)-8---8--8---8---|
 |-4-4-4-4---4---5-|---5-5---------|-7----7-7-7---7-|-(7)-7---7--7---7---|
 |-5-5-5-5---5---7-|---7-7------7--|-7----7-7-7---8-|-(8)-8---8--8---8---|
 |-----------------|---------------|----------------|--------------------|
 |-----------------|---------------|----------------|--------------------|

[Bm7]Gtr I[E9]
Q Q +E E E E +Q H E E
| | | | | | | | |
/ / / / x / / / /
Gtr III
W W
 
 |-------------------|------------------|
 |-------------------|------------------|
 |-------------------|------------------|
 |-------------------|------------------|
 |-------------------|------------------|
 |-------------------|------------------|

|
| Gtr II
| E Q E +E Q E +E E Q E E E E
 
 |-------------------|------------------|
 |-7-7---7-(7)-7---7-|-(7)-7-7--7---7---|
 |-7-7---7-(7)-7---7-|-(7)-7-7--7---7---|
 |-7-7---7-(7)-7---6-|-(6)-6-6--6---6---|
 |-------------------|------------------|
 |-------------------|------------------|

[Am7]E E Q +E E E [Cm7]E +E E Q Q Q
| | | | | | | | | |
/ / / / / / o / / /
~~~~~~~~~~~ ~
 
 |--3--| |-3--| |---3---|

E E E a E E E E E E Q +Q S E. H
 
 |-------------------8--10-----10---|-(10)---6-8--8-------|
 |-------------8-10-----------------|---------------------|
 |-------5-7s9----------------------|---------------------|
 |---7------------------------------|---------------------|
 |----------------------------------|---------------------|
 |----------------------------------|---------------------|

|
| E E Q +E E E E +E E Q E E E E
 
 |--------------------------------3-|--(3)---3------------|
 |-5---------5------(5)----5------4-|--(4)---4--------4---|
 |-5---------5------(5)----5------3-|--(3)--------3-------|
 |-5---------5------(5)----5--------|------5--------5---5-|
 |--------------------------------3-|--(3)----------------|
 |-5---------5------(5)----5--------|---------------------|

[Am7] E E Q +E E E [Cm7]E
| | | | |
[/] [/] [/] [/] [/]  
~~~~~~~~~~~~~~~
 
 |----3----|

+E a E E E Q Q Q
 
 |-(8)--------------------------------|
 |-----10h11-11-11b12==11---11---11---|
 |------------------------------------|
 |------------------------------------|
 |------------------------------------|
 |------------------------------------|

|
| E E E E E E E E
 
 |------------------------------------|
 |--5------5--5--5------5-5---------4-|
 |--5------5--5--5------5-5---------3-|
 |--5------5--5--5------5-5---------5-|
 |----------------------------------3-|
 |--5------5--5--5------5-5-----------|

+E E Q Q Q [Am7] E E Q +E [Cm7]E E E
| | | | | | | | | |
/ o / / / / / / / /
~~~~~~~~~~~~~~~~~~~~~ ~~~~~~~ ~~~~~~
 
 |------3-------| |----3----| |-----3-----|

+Q +Q +Q q Q Q S S S S E E Q Q E E
 
 |--------------------------------------|--------------------------------|
 |-(11)---(11)r---(11)---11---10---10---|-10-10p8h10p8-8--8---8---8s==7--|
 |--------------------------------------|--------------------------------|
 |--------------------------------------|--------------------------------|
 |--------------------------------------|--------------------------------|
 |--------------------------------------|--------------------------------|

|
| +E E E E E E E E E E E E E E E E
 
 |--------------------------------------|--------------------------------|
 |--(4)---------4---------4------4------|--5----5------5--5-5-------4----|
 |--(3)---------3---------3------3------|--5----5------5--5-5-------3----|
 |--(5)---------5---------5------5------|--5----5------5--5-5-------5----|
 |--(3)-3--------------3----3---------3-|---------------------------3----|
 |--------------------------------------|--5----5------5--5-5------------|

+E E Q Q Q [Am7]E E Q +E E E [Cm7]E E E Q Q Q
| | | | | | | | | | | | | | |
/ o / / / / / / / / / o / / /
~~~~~~~
 
 |----3-----| |-3-| |--3--|

Q Q E E E E E E E E E E E E E E E E E +E Q E E E E
 
 |-----------------------------|-------------------|-----------------------||
 |--7----7---5-----------------|-------------------|----------8------------||
 |-------------7-7-5-5-4-4-----|-------------5-7---|--7b8-(7)--------------||
 |-----------------------------|---5-4-5--7--------|--------------8-7------||
 |-----------------------------|-------------------|------------------7-5--||
 |-----------------------------|-------------------|-----------------------||

|
| +Q Q Q E E E E E E +E Q E +E E E E E E E E
 
 |---------3-------------------|-------------------|----------3------------||
 |-(4)-----4-----4-----4-------|---5---5-(5)-5---4-|-(4)------4-4-4---5----||
 |-(3)-----3-----3-----3-------|---5---5-(5)-5---3-|-(3)------3---3---4----||
 |-(5)-----------5-----5-------|---5---5-(5)-5---5-|-(5)----------5---6----||
 |-(3)-----------3-----3-------|-------------------|-------3------3---4----||
 |-----------------------------|-5---5-------------|-----------------------||

Verse
[Dm7]Gtr I[Em7]
Q E E E E E E E E E E Q Q
| | | | | | | | | |
/ x / / / x / / / /
Gtr III
~
H E E E E Q. E a E E E E
 
 |----------------|--------------------|
 |----------------|--------------------|
 |----------------|--------------------|
 |----------------|--------7-7s9-7-----|
 |-5------3-----7-|-7--------------7-5-|
 |----------------|--------------------|

|
| Gtr II
| Q E E E E E E E E E E E E Q
 
 |----------------|--------------------|
 |-6----6-------8-|----8---8-------9---|
 |-5----5-------7-|----7-----------7---|
 |-7----7-------9-|----9---------9-----|
 |-5----5-------7-|----7-------7-------|
 |--------5-5-----|--------7-----------|

[Ebmaj7]Q E E E E E [Fmaj7] E E E E E Q Q
| | | | | | | | | | |
/ / / / x / x / x / /
Q E. S E E E E Q. S S e S S E S S
 
 |--------------------|-------------------------------|
 |--------------------|-------------------------------|
 |---------6-8-7-8s10-|-10-------9h10--9-9h10-9-9h10--|
 |--------------------|-------------------------------|
 |-6--6---------------|-------------------------------|
 |--------------------|-------------------------------|

|
| Q E E E E E E E E E E Q Q
 
 |--------------------|-------------------------------|
 |-8-----8---8-8---10-|-----10--------10--------------|
 |-7-----7---7-7----9-|------9---------9--------------|
 |-8-----8---8-8---10-|-----10--------10--------------|
 |-6-----6----------8-|------8---------8--------------|
 |-----------6-6------|----------8------------8-------|

[Bbmaj7]Q E E E E E [Dm7]E E E E E Q Q
| | | | | | | | | |
/ x / / / x / / / /
W W[G]
 
 |-----------------------------|-------------------|
 |-----------------------------|-------------------|
 |-----------------------------|-------------------|
 |-----------------------------|-------------------|
 |-----------------------------|-------------------|
 |-----------------------------|-------------------|

|
| S S S S S S S S E E E E +E E E E E E E E
 
 |-----------------------------|-------------------|
 |-----------------------------|-------------------|
 |-9h10-9h10-9h10-9h10-9S7-7---|-------6---5---5---|
 |---------------------------7-|-(7)-7---7---7---7-|
 |-----------------------------|-------------------|
 |-----------------------------|-------------------|

|
| Gtr II
| Q E E E E E E E E E E E E E E
 
 |-----------------------------|---------5---------|
 |-6--------------6----6-6---6-|-----6-------------|
 |-7--------------7----7-7---5-|-----5-----5-------|
 |-7--------------7----7-7---7-|-----7-------7---0-|
 |---------------------------5-|-----5---------0---|
 |-6--------------6----6-6-----|-------------------|

[Asus2]W W
tr I
E E E E E Q E +E E E E E E E S S
 
 |---0-------------|-----------------------------|
 |-0-----0-------5-|-(5)-------------------------|
 |-----0---2-----5-|-(5)-----------5----5--5-5-5-|
 |-----------2---7-|-(7)----7-7-7--7----7--7-7-7-|
 |---------------7-|-(7)----7-7-7--7----7--7-7-7-|
 |---------------5-|-(5)----5-5-5--5----5--5-5-5-|

|
| H Q E E S E. Q Q Q
 
 |-----------------|-----------------------------|
 |-----------------|----------8---10b12---10-----|
 |-------------5---|--7s=9-----------------------|
 |---------------7-|-----------------------------|
 |-----------------|-----------------------------|
 |-----------------|-----------------------------|

|
| E E E E E E E E +E E Q E E E E
 
 |-----------------|-----------------------------|
 |-0-----1-------5-|-(5)-------------------5-----|
 |---2-----2-----5-|-(5)----7-5----5-------------|
 |-----2-----2---7-|-(7)----------------7----7---|
 |-------------0---|-----------------------------|
 |-----------------|-----------------------------|

[Dm7]Q E E E E E [Em7] E E E E E Q Q
| | | | | | | | | |
/ x / / / x / / / /
~~~
H E E E E Q E E E E E E
 
 |-------------------------|----------------------------|
 |----------10b12-10-12b14-|-------12b14-12-12b14-12-11-|
 |-------------------------|----------------------------|
 |-------------------------|----------------------------|
 |-------------------------|----------------------------|
 |-------------------------|----------------------------|

|
| Q E E E E E E E E E E E E E E
 
 |--------5----------------|----------------------------|
 |----6---6--6--------8----|---8----8-----------------8-|
 |----5---5--5--------7----|---7----7-------------------|
 |----7------7--------9----|---9----9--------------9----|
 |-5-----------------------|-----------------7----------|
 |-------------------------|----------------------------|

[Ebmaj7] Q E E E E E [Fmaj7] E E E E E Q Q
| | | | | | | | | | |
/ / / / x / x / x / /
~~~~~~ ~~~~~~~
+Q E E +E E S E. E Q E Q E E
 
 |--------10---------10-----------|-12-------12-------12-----|
 |-(11)------11-(11)----11s13-----|----13-------13-------13--|
 |--------------------------------|--------------------------|
 |--------------------------------|--------------------------|
 |--------------------------------|--------------------------|
 |--------------------------------|--------------------------|

|
| E E E E E E E E E E E E E E Q
 
 |----------------6-------------8-|--------------------------|
 |---8-----8------8---8--------10-|----10----------10--------|
 |---7-----7------7---7---------9-|-----9-----------9--------|
 |---8-----8----------8-----------|----10-10-10-------10-----|
 |--------------------------------|--------------------------|
 |--------------------------------|--------------------------|

[Bbmaj7]Q E E E E E [Dm7]E E E E E Q Q
| | | | | | | | | |
/ x / / / x / / / /
Gtr I
W W
 
 |-------------------|-------------------|
 |-------------------|-------------------|
 |-------------------|-------------------|
 |-------------------|-------------------|
 |-------------------|-------------------|
 |-------------------|-------------------|

|
| ~~~~~~ ~ ~ ~ ~
| Q E E +E E Q E Q E Q E E
 
 |-----5-------5-----|--5------5-----5---|
 |-------6-(6)---6---|-----6------6----6-|
 |-------------------|-------------------|
 |-------------------|-------------------|
 |-------------------|-------------------|
 |-------------------|-------------------|

|
| Gtr II
| E E E E E E E E +E E E Q. E E
 
 |----------5--------|-----5-------------|
 |-6---6----6--6---5-|-(5)---6-------6---|
 |-7---7----7--7---6-|-(6)---5-------5---|
 |-7---7-----------7-|-(7)---7---------0-|
 |-------------------|-------------------|
 |-------------------|-------------------|

[Asus2/E]W [Am] W
E E Q Q E E Q E E E E E E
 
 |---0-----------0-|--0---0-0-0-0-0----0--||
 |-----0---------1-|--1---1-1-1-1-1----1--||
 |---------------0-|--0---0-0-0-0-0----0--||
 |-----------------|--2---2-2-2-2-2----2--||
 |-0-------0---0---|--0---0-0-0-0-0----0--||
 |-----------------|----------------------||

|
| E E q E E Q H Q S E.
 
 |-----5-----------|----------------------||
 |-----5-----7-----|----------------------||
 |-----------7-----|----------------------||
 |---7-----7-------|----------5-----------||
 |-----------------|--------------7s5-----||
 |-----------------|----------------------||

|
| E E E E E Q E +Q E E E E E E
 
 |-----------------|--------------5-------||
 |-0-----1---------|------5-------5-------||
 |---2-----2-------|------5---5---5-------||
 |-----2-----2-----|----------------------||
 |-----------------|--------7---7---------||
 |---------------5-|-(5)------------------||

Bridge
$
[Cmaj7]Gtr I
[E]| [E]| [E]| [E]| [+E] | [E]| [E]| [E]| [E]| [E]| [E]| [E]| [+E] | [E]| [E]| [E]|
[/] [/] [/] [/] [/] [/] [/] [/] [/] [/] [/] [/] [/] [/] [/] [/] 
Gtr III
Q Q Q E E +Q Q Q Q
 
 |------------------|--------------------|
 |----------5---x-5-|-(5)---x----5-------|
 |----------4---x-4-|-(4)---x----4-------|
 |----------5---x-5-|-(5)---x----5-------|
 |-3---x------------|--------------------|
 |------------------|--------------------|

|
| Gtr II
| E Q E E Q E E E E E E E E E
 
 |------------------|-----3--------------|
 |-5-----5--5-----5-|-----3---5--5---5---|
 |-4-----4--4-----4-|-----4------4---4---|
 |-5-5---5--5-----5-|------------5---5---|
 |------------------|--------------------|
 |------------------|--------------------|

Fmaj7open
E E E E +E E E E Q E E E E Q
| | | | | | | | | | | | | |
[/] [/] [/] [/] [/] [/] [/] [/] [/] [/] [/] [/] [/] [/] 
Q Q E Q E +H H
 
 |-0---x----0--0---0-|-(0)---------------|
 |-1---x----1--1---1-|-(1)---------------|
 |-2---x----2--2---2-|-(2)---------------|
 |-3---x----3--3---3-|-(3)---------------|
 |-------------------|-------------------|
 |-------------------|-------------------|

|
| Q E E Q. E E Q E Q E E
 
 |-------0--0------0-|-----0---0-0---0---|
 |-1-----1--1------1-|-----1---1-1---1---|
 |-2-----2--2------2-|-----2---2-2---2---|
 |-3-----------------|-------------------|
 |-------------------|-------------------|
 |-------------------|-------------------|

[Dm7]E E E E +E E E E Q E E E E E E
| | | | | | | | | | | | | | |
/ / / / / / / / / / / / / / x
Q. E +E Q E +E E E E Q Q
 
 |-5------5-(5)-5---5-|-(5)-5-5---5-------|
 |-6------6-(6)-6---6-|-(6)-6-6---6-------|
 |-5------------------|-----------5-------|
 |-7------------------|-----------7-------|
 |-5------------------|-----------5-------|
 |--------------------|-------------------|

|
| E E E E E E E E E E E E Q E E
 
 |--------------------|-------------------|
 |-6---------6--6---6-|-----6---6-6---6---|
 |-5--5------5--5---5-|-----5---5-5---5---|
 |-7--7------7--7---7-|-----7---7-7---7---|
 |-5--5---5--5--5---5-|-----5---5-5---5---|
 |--------------------|-------------------|

[Bm7] [E9] 
[E]| [E]| [E]| [E]| [E]| [E]| [E]| [E]| [E]| [E]| [E]| [E]| [+E] | [E]| [E]| [E]|
/ / / / / / x / x / / / / / / x
S S S S S S S S S S S S e E S S S S S S S S S S S S e E
 
 |-10-10-10-10-10---10-10-10-10-10-10-10-7-|-7-7-7-7-7---7-7--7-7-7-7-7---|
 |-10-10-10-10-10---10-10-10-10-10-10-10-7-|-7-7-7-7-7---7-7--7-7-7-7-7---|
 |-----------------------------------------|------------------------------|
 |-----------------------------------------|------------------------------|
 |-----------------------------------------|------------------------------|
 |-----------------------------------------|------------------------------|

|
| E E E E E E E E E E Q E E E E
 
 |-----------------------------------------|---------7--------------------|
 |--7-----7----------7-----------7-------7-|-7-------7--------7-------7---|
 |--7-----7----------7-----------7-------7-|-7---7------------7-------7---|
 |--7-----7----------7-----------7-------6-|-6----------------6-------6---|
 |-----------------------------------------|------------------------------|
 |-----------------------------------------|------------------------------|

[Am7]Gtr III[Fmaj7] [Cmaj7]
E. S E E E S S S S E S S S S E E E S S E E E S S E E E S S E E
| | | | | | | | | | | | | | | | | | | | | | | | | | | | |
/ / / x x x x / / / / / / / / / / / / / / / / / / / / / x
W W W
 
 |----------------------|-----------------------|---------------------|
 |----------------------|-----------------------|---------------------|
 |----------------------|-----------------------|---------------------|
 |----------------------|-----------------------|---------------------|
 |----------------------|-----------------------|---------------------|
 |----------------------|-----------------------|---------------------|

[Dm7]S S S S E E S S S S E S S
| | | | | | | | | | | | |
/ / / / / / / / / / / x x
W
 
 |---------------------------|
 |---------------------------|
 |---------------------------|
 |---------------------------|
 |---------------------------|
 |---------------------------|

[Bbmaj7]S S S S S S E +E S S E S [Ebmaj7]S S S S S E E S S S S E [Bm7]S S
| | | | | | | | | | | | | | | | | | | | | | | | | |
/ / / / x x / / / / / / / / / / / / / / / / / / / /
W W
 
 |----------------------------|---------------------------|
 |----------------------------|---------------------------|
 |----------------------------|---------------------------|
 |----------------------------|---------------------------|
 |----------------------------|---------------------------|
 |----------------------------|---------------------------|

To Coda
S S S S E E S S S S S S [E9]E +S S S S E E S S S S S S S S
| | | | | | | | | | | | | | | | | | | | | | | | | | |
/ / / / / / / / / / x x / / / / / / / / / / / / / o /
W W
 
 |---------------------------|------------------------------|
 |---------------------------|------------------------------|
 |---------------------------|------------------------------|
 |---------------------------|------------------------------|
 |---------------------------|------------------------------|
 |---------------------------|------------------------------|

[Am7]Gtr I[Cm7]
E E Q +E E E E +E E Q Q Q
| | | | | | | | | |
/ / / / / / o / / /
Gtr III
E E Q E E Q Q. S S E S S E E
 
 |-----------------|---------------------------|
 |-5-5-----5-5-----|---------10-10-10-8-8-8-10-|
 |-5-5-----5-5-----|---------10-10-10-8-8-8-10-|
 |-5-5-----5-5-----|---------10-10-10-8-8-8-10-|
 |-x-------x-x-----|---------------------------|
 |-5-------5-5-----|---------------------------|

|
| Gtr II
| W H Q Q
 
 |-----------------|---------------------------|
 |-5---------------|----------------------4----|
 |-5---------------|----------------------3----|
 |-5---------------|----------------------5----|
 |-----------------|----------------------3----|
 |-5---------------|---------------------------|

[Am7]E E Q +E E E [Cm7]E +E E Q Q Q
| | | | | | | | | |
/ / / / / / o / / /
<
Q Q E E Q H S S S S S S S S
 
 |-----------------|----------------------------------|
 |-5---------------|---------------10-10-10-8-8-10-10-|
 |-5-------5-5-----|---------------10-10-10-8-8-10-10-|
 |-5-------5-5-----|---------------10-10-10-8-8-10-10-|
 |---------x-x-----|----------------------------------|
 |---------5-5-----|----------------------------------|

|
| H H Q. E +Q Q
 
 |-----------------|----------------------------------|
 |-5---------------|---------4-(4)----------4---------|
 |-5---------------|---------3-(3)----------3---------|
 |-5---------------|---------5-(5)----------5---------|
 |-----------------|---------3-(3)----------3---------|
 |-5---------------|----------------------------------|

[Am7]E E Q +E E E [Cm7]E +E E Q Q Q
| | | | | | | | | |
/ / / / / / o / / /
S S S S E. S H H S S E S S E
 
 |------------------------|-----------8-8---6-6---|
 |-5-5-5-5-5--5-----------|-----------6-6-x-4-4-x-|
 |-5-5-5-5-5--5-----------|-----------------------|
 |-5-5-5-5-5--5-----------|-----------------------|
 |------------------------|-----------------------|
 |------------------------|-----------------------|

|
| Q Q +E E E E +Q H.
 
 |------------------------|-------3---------------|
 |-5-------5----(5)-5---4-|-(4)---4---------------|
 |-5-------5----(5)-5---3-|-(3)---3---------------|
 |-5-------5----(5)-5---5-|-(5)-------------------|
 |----------------------3-|-(3)-------------------|
 |-5-------5----(5)-5-----|-----------------------|

[Am7]E E Q +E E E [Cm7]E +E E Q Q Q
| | | | | | | | | |
/ / / / / / o / / /
H H Q. S S S S S S S S S S
 
 |------------------|---------3-3-3-3-3-3-3-3-3-3-||
 |-5----------------|---------4-4-4-4-4-4-4-4-4-4-||
 |-5----------------|---------3-3-3-3-3-3-3-3-3-3-||
 |-5----------------|-----------------------------||
 |------------------|-----------------------------||
 |------------------|-----------------------------||

|
| Q Q +E E E E +H Q Q
 
 |------------------|-----------------------------||
 |-5---5--(5)-5---4-|-(4)---------4-------4-------||
 |-5---5--(5)-5---3-|-(3)---------3-------3-------||
 |-5---5--(5)-5---5-|-(5)---------5-------5-------||
 |----------------3-|-(3)---------3-------3-------||
 |-5---5--(5)-5-----|-----------------------------||

Guitar Solo
[Dm7]Gtrs I, III[Em7]
Q Q E E E E Q Q E S S E S S
| | | | | | | | | | | | |
/ / x / x / / / x x / x x
Gtr IV
Q. E E Q E E Q E +H
 
 |-----------------------------------|----------------------------------|
 |-------12b13-12b13-12b13-----12b13-|-----14b15---14b15-(14)-----------|
 |-----------------------------------|----------------------------------|
 |-----------------------------------|----------------------------------|
 |-----------------------------------|----------------------------------|
 |-----------------------------------|----------------------------------|

|
| Gtr V
| ~~~~~~~~~~
| Q. E E Q E E Q E +H
 
 |-----------------------------------|----------------------------------|
 |--------9b10--9b10--9b10------9b10-|-----11b12---11b12-(11)-----------|
 |-----------------------------------|----------------------------------|
 |-----------------------------------|----------------------------------|
 |-----------------------------------|----------------------------------|
 |-----------------------------------|----------------------------------|

|
| Gtr II
| H. +E E +H. E E
 
 |-----------------------------------|----------------------------------|
 |-6-----------------------(6)--8----|-(8)------------------------8-----|
 |-5-----------------------(5)--7----|-(7)------------------------7-----|
 |-7-----------------------(7)--9----|-(9)------------------------9-----|
 |-5-----------------------(5)--7----|-(7)------------------------7-----|
 |-----------------------------------|----------------------------------|

[Ebmaj7] q E. S E S S E [Fmaj7] S S
| | | | | | | | |
[/] [/] [/] [/] [/] [/] [/] [/] [/] 
+Q. E E Q E
 
 |--------------------------------------------|
 |-(14)------14b15---14b15-14b15-----14b15----|
 |--------------------------------------------|
 |--------------------------------------------|
 |--------------------------------------------|
 |--------------------------------------------|

|
| +Q E E E Q E
 
 |--------------------------------------------|
 |-(11)------10b11---10b11-10b11-----10b11----|
 |--------------------------------------------|
 |--------------------------------------------|
 |--------------------------------------------|
 |--------------------------------------------|

|
| E E H E E
 
 |--------------------------------------------|
 |---8----8------------------------8-10-------|
 |---7----7------------------------7--9-------|
 |---8----8------------------------8-10-------|
 |---6----6------------------------6--8-------|
 |--------------------------------------------|

S S S S E S S S S E E S S
| | | | | | | | | | | | |
[/] [/] [/] [/] [/] [/] [/] [/] [/] [/] [/] [/] [/] 
[E] [E] [E] [E] [+B]  
 
 |-----14b15------------------------------|
 |----------------16b17---(16)------------|
 |----------------------------------------|
 |----------------------------------------|
 |----------------------------------------|
 |----------------------------------------|

|
| E E E E +H
 
 |----------------------------------------|
 |-----12b13-------9b10----(9)------------|
 |----------------------------------------|
 |----------------------------------------|
 |----------------------------------------|
 |----------------------------------------|

|
| Q Q +E E E E
 
 |----------------------------------------|
 |-------------10---------(10)-----10-----|
 |--------------9----------(9)------9-----|
 |-------------10---------(10)-----10-----|
 |--------------8----------(8)---8--8-----|
 |----------------------------------------|

[Bbmaj7]Q E E E S S E E [Dm7]S S S S E E S S S S E S S
| | | | | | | | | | | | | | | | | | | | |
[/] [/] [/] [/] [/] [/] [/] [/] [/] [/] [/] [/] [/] [/] [/] [/] [/] [/] [/] [/] [/] 
E E E E E E E E E E E E E E Q
 
 |---12b13---14b15-----12b13-----14b15-|-----14b15-----12b13-----14b15---------|
 |-------------------------------------|---------------------------------------|
 |-------------------------------------|---------------------------------------|
 |-------------------------------------|---------------------------------------|
 |-------------------------------------|---------------------------------------|
 |-------------------------------------|---------------------------------------|

|
| E E E E +E E E E E E E E E E Q
 
 |--------------------------------9b10-|------9b10----------------9b10---------|
 |----9b10----7b8--(7)--9b10-----------|----------------9b10-------------------|
 |-------------------------------------|---------------------------------------|
 |-------------------------------------|---------------------------------------|
 |-------------------------------------|---------------------------------------|
 |-------------------------------------|---------------------------------------|

|
| E E H E E Q Q Q Q
 
 |-------------------------------------|---------------------------------------|
 |-6-------6----------------------6----|-------------6-------6-----------6-----|
 |-7-------7----------------------5----|-------------5-------5-----------5-----|
 |-7-------7----------------------7----|-------------7-------7-----------7-----|
 |--------------------------------5----|-------------5-------5-----------5-----|
 |-6-------6---------------------------|---------------------------------------|

[Asus2]Gtr III
Q. E +Q. E +W
| | | | |
/ o / o /
Gtr IV
Q E E +Q E E +H. Q
 
 |-15b17----15b17-(15)-----15b17--|-(15)--------------------|
 |--------------------------------|-------------------------|
 |--------------------------------|-------------------------|
 |--------------------------------|-------------------------|
 |--------------------------------|-------------------------|
 |--------------------------------|-------------------------|

|
| Gtr V
| Q. E +Q E E +H E E a +E E
 
 |--7--------8-----(8)-----10b12==|=(10)----10-10-10r(10)-8-|
 |--------------------------------|-------------------------|
 |--------------------------------|-------------------------|
 |--------------------------------|-------------------------|
 |--------------------------------|-------------------------|
 |--------------------------------|-------------------------|

|
| Gtr I
| Q E E +E E E E +H Q Q
 
 |--------0------------0-0--------|----------0--------------|
 |--0--------1-----(1)-1-1--1-----|--(1)---------------1----|
 |--2--------2-----(2)-2-2--2-----|--(2)--------------------|
 |--2--------2-----(2)------2-----|--(2)--------------------|
 |--0--------0-----(0)------0-----|--(0)--------------------|
 |--------------------------------|-------------------------|

[Asus2] Q. E +Q E [A] E +W
| | | | |
/ o / / /
~~~~~~~~~~~~~
Q E E +Q E E +H +E E E E
 
 |-15b17----15b17-(15)----15b17==|=(15)-------(15)-15r-15---12--|
 |-------------------------------|------------------------------|
 |-------------------------------|------------------------------|
 |-------------------------------|------------------------------|
 |-------------------------------|------------------------------|
 |-------------------------------|------------------------------|

|
| Q. E +Q E E +H. Q
 
 |--7--------8-----(8)-----9-----|--(9)-----------------8b9-----|
 |-------------------------------|------------------------------|
 |-------------------------------|------------------------------|
 |-------------------------------|------------------------------|
 |-------------------------------|------------------------------|
 |-------------------------------|------------------------------|

|
| Q. E +Q. E +E E E E E E E E
 
 |-------------------------0-----|--(0)-0-------0---------------|
 |--0--------1-----(1)-----2-----|--(2)-2---------------2-------|
 |--2----------------------2-----|--(2)-2-2-2-------2--------2--|
 |--2----------------------2-----|--(2)-2-2-2-------------------|
 |--0----------------------0-----|--(0)-0-0-0-------------------|
 |-------------------------------|------------------------------|

[Asus2] Q. E +Q. [Asus4] E +Q [A5]Q Q Q
| | | | | | | |
/ o / / / / / /
Q E E +Q E E +H Q Q
 
 |-15b17----15b17-(15)-----15b17-|-(15)-------17------17------|
 |-------------------------------|------------20b22---20b22---|
 |-------------------------------|----------------------------|
 |-------------------------------|----------------------------|
 |-------------------------------|----------------------------|
 |-------------------------------|----------------------------|

Important: The song above is NOT stored on the Chordie server. The original song is hosted at www.guitaretab.com. Chordie works as a search engine and provides on-the-fly formatting. Chordie does not index songs against artists'/composers' will. To remove this song please click here.

Text color:
Chord color:
Chord grids: 
Font size:    
Page size: 

A A5 Am Am/F# Am7 Asus2 Asus2/E Asus4 Bbmaj7 Bm7 C#m7 Cm7 Cmaj7 Dm7 E E9 Ebmaj7 Em7 Fmaj7 G
Rate #1 of 2 versions

Jango Player

Login - add to songbook

SHARE PAGE  



You need to log in to post comments