Guitar Tabs, Chords and Lyrics
Major upgrade!! After one year development the new version of Chordie is now online! Please give feedback.


Theme From Conversations With Fire   Chicosci

 
 e[----------------------------](4x)(both guitars)
 b[----------------8-8-8-8s7---]
 g[-4-4--6-6--7-7--7-7-7-7s6---]
 d[-4-4--6-6--7-7--5-5-5-5s4---]
 a[-2-2--4-4--5-5--------------]
 e[----------------------------]

 


 intro2/chorus(2x)both guitars


 

 
 e[---------------](2x)e[---------------](2x)e[------------------](2x)
 b[---------------] b[---------------] b[------------------]
 g[---------------] g[---------------] g[------------------]
 d[--2-2(5p2-5s4)-] d[--2-2(5p2-5s4)-] d[--7-7-5-5-4-4-----]
 a[--2-2----------] a[--3-3----------] a[--------------7-7-]
 e[--0-0----------] e[--0-0----------] e[------------------]
 e[--------------]
 b[--------------]
 g[--------------] *those in (): guitar 1 only

 


 d[--5555555887--]


 a[--3333333665--]


 

 
 e[--------------]

 


 verse(both guitars)


 

 
 e[--------------](2x)
 b[--------------]
 g[--------------]"wish i could cut you off..."
 d[--22----------]
 a[--22----3-----]
 e[--00----0-----]

 


 pre-chorus(guitar1)


 

 
 e[-----------------------------](2x)p.m.
 b[-----------------------------]
 g[-----------------------------]

 


 d[--77777777(5554445554445544)-]*with guitar 2 on 2nd time


 a[--55555555-3332223332223322--]


 

 
 e[-----------------------------]

 


 do chorus riff


 


 pre-verse:


 e[--6666666666666666--]


 b[--6666666666666666--]


 

 
 g[--------------------]
 d[--------------------]
 a[--------------------]
 e[--------------------]

 


 


 verse


 


 pre-chorus


 


 chorus(2x)


 


 pre-verse


 


 bridge:


 "lets go!"


 

 
 e[-10---10---10---10--------------------]*palm muted
 b[---8----8----8----8---7-7-------------](repeat as necessary)
 g[----9*---9*---9*---9*-----9-9-7-7-----]"goodbye things will never end..."
 d[----------------------------------10--]
 a[--------------------------------------]
 e[--------------------------------------]


Important: The song above is NOT stored on the Chordie server. The original song is hosted at www.guitaretab.com. Chordie works as a search engine and provides on-the-fly formatting. Chordie does not index songs against artists'/composers' will. To remove this song please click here.

This song is displayed as text-only. Transposing and tuning is only available for chordpro-songs.
Rate #4 of 5 versions

Login - add to songbook

SHARE PAGE  




You need to log in to post comments