Guitar Tabs, Chords and Lyrics
Update 25:10. 13:00. Site is back up running again. Songbooks are recovered. Woring on getting search back up..


Was It Worth It?  Children of Bodom

 
 ----------------------------------------------------------------------------------------------

Was It Worth It? - Children Of Bodom
 
 ----------------------------------------------------------------------------------------------

Album: Relentless Reckless Forever
Tabbed by: Eric Tobian
e-mail: starcraftx@hotmail.de
Tuning: C G C F A D (Drop C)
Tempo: 130
ALEXI
[-----]  
Intro:
PM PM PM PM PM PM PM PM PM PM PM PM PM PM PM PM PM PM PM PM PM PM PM PM
 
 |---3---| |--3--| |---3---| |---3---| |--3--| |---3---| |--3--| |--3--| 

[E] [E] [E] [E] [E] [E] [E] [E] [E] [E] [E] [E] [E] [E] [E] [E] [E] [E] [E] [E] [E] [E] [E] [E]  
 
 D||-----------------------------------------------|-----------------------------------------|
 A||-----------------------------------------------|-----------------------------------------|
 F||--------------9--9--9--------------------------|--9--9--9--12--12--12--------------------|
 C||--12--12--12-----------10--10--10--10--10--10--|-----------------------9--9--9--9--9--9--|
 G||-----------------------------------------------|-----------------------------------------|
 C||-----------------------------------------------|-----------------------------------------|

PM PM PM PM PM PM PM PM PM PM PM PM
 
 |---3---| |--3--| |---3---| |---3---| |----3---| |---3---| |----3---| |--3--| 

[E] [E] [E] [E] [E] [E] [E] [E] [E] [E] [E] [E] [E] [E] [E] [E] [E] [E] [E] [E] [E] [E] [E] [E]  
 
 -----------------------------------------------|-------------------------------------------------|
 -----------------------------------------------|-------------------------------------------------|
 --------------9--9--9--------------------------|---------------------------9h--10--10--10--9--9--|
 --12--12--12-----------10--10--10--10--10--10--|--10h--12--12--12--10--10------------------------|
 -----------------------------------------------|-------------------------------------------------|
 -----------------------------------------------|-------------------------------------------------|

Main Riff:
PM PM PM PM
 
 |--3-| |---3--| |--3--| |---3--| |--3-| |--3--| |--3--| |--3--| 

Q E E E E E E E E E E Q E E E E E E E E E E
 
 ---------------------------------------|-------------------------------------|
 ---------------------------------------|-------------------------------------|
 ---------------------------------------|-------------7-----------------------|
 --0-------7s--5--7---------------------|--0-------------6--5-----------------|
 --0-------5s--3--5--------8---------7--|--0-------5-----------8--------4--8--|
 --0----0------------0--0-----7--10-----|--0----0-----------------7--8--------|

PM PM PM
 
 |--3-| |---3--| |--3--| |---3---| |----3---| |---3---| |--3-| |---3--| 

Q E E E E E E E E E E E E E E E E Q E E E E
 
 ----------------------------------------|--------------------------------------------|
 ----------------------------------------|--------------------------------------------|
 ----------------------------------------|--------------------------------------------|
 --0-------7s--5--7----------------------|--------------------------------------------|
 --0-------5s--3--5--------8-------------|--8s--10--10--10S--5S--3--L----0--3s--5--5--|
 --0----0------------0--0-----8--10--10--|--8s--10--10--10S--5S--3--L----0--3s--5--5--|

PM PM PM PM
 
 |--3-| |---3--| |--3--| |---3--| |--3-| |--3--| |--3--| |--3--| 

Q E E E E E E E E E E Q E E E E E E E E E E
 
 ---------------------------------------|-------------------------------------|
 ---------------------------------------|-------------------------------------|
 ---------------------------------------|-------------7-----------------------|
 --0-------7s--5--7---------------------|--0-------------6--5-----------------|
 --0-------5s--3--5--------8---------7--|--0-------5-----------8--------4--8--|
 --0----0------------0--0-----7--10-----|--0----0-----------------7--8--------|

PM PM PM
 
 |--3-| |---3--| |--3--| |---3---| |----3---| |---3---| |--3-| |---3--| 

Q E E E E E E E E E E E E E E E E Q E E E E
 
 ----------------------------------------|---------------------------------------------|
 ----------------------------------------|---------------------------------------------|
 ----------------------------------------|---------------------------------------------|
 --0-------7s--5--7----------------------|---------------------------------------------|
 --0-------5s--3--5--------8-------------|--8s--10--10--10--5-------------0--3s--5--5--|
 --0----0------------0--0-----8--10--10--|--8s--10--10--10--5--3~--L----0--3s--5--5--|

Verse:
PM PM PM PM PM PM PM PM PM
 
 |--3--| |--3--| |--3-| |---3--| |--3--| |---3--| 

E E E E E E H W Q E E E E E E E E E E
 
 -----------------------------|-------------------|---------------------------------------|
 -----------------------------|-------------------|---------------------------------------|
 -----------------------------|-------------------|---------------------------------------|
 -----------2--3--0-----------|-------------------|--0-------7s--5--7---------------------|
 --5--3--5--------------------|-------------------|--0-------5s--3--5--------8---------7--|
 -----------------------------|-------------------|--0----0------------0--0-----7--10-----|

PM PM PM PM PM PM PM
 
 |--3-| |--3--| |--3--| |--3--| |--3--| |--3--| 

Q E E E E E E E E E E E E E E E E H W
 
 -------------------------------------|-----------------------------|-------------------|
 -------------------------------------|-----------------------------|-------------------|
 -------------7-----------------------|-----------------------------|-------------------|
 --0-------------6--5-----------------|-----------2--3--0-----------|-------------------|
 --0-------5-----------8--------4--8--|--5--3--5--------------------|-------------------|
 --0----0-----------------7--8--------|-----------------------------|-------------------|

PM PM PM
 
 |--3-| |---3--| |--3--| |---3---| |----3---| |---3---| |--3-| |---3--| 

Q E E E E E E E E E E E E E E E E Q E E E E
 
 ----------------------------------------|--------------------------------------------|
 ----------------------------------------|--------------------------------------------|
 ----------------------------------------|--------------------------------------------|
 --0-------7s--5--7----------------------|--------------------------------------------|
 --0-------5s--3--5--------8-------------|--8s--10--10--10S--5S--3--L----0--3s--5--5--|
 --0----0------------0--0-----8--10--10--|--8s--10--10--10S--5S--3--L----0--3s--5--5--|

PM PM PM PM PM PM PM PM PM
 
 |--3--| |--3--| |--3-| |---3--| |--3--| |---3--| 

E E E E E E H W Q E E E E E E E E E E
 
 -----------------------------|-------------------|---------------------------------------|
 -----------------------------|-------------------|---------------------------------------|
 -----------------------------|-------------------|---------------------------------------|
 -----------2--3--0-----------|-------------------|--0-------7s--5--7---------------------|
 --5--3--5--------------------|-------------------|--0-------5s--3--5--------8---------7--|
 -----------------------------|-------------------|--0----0------------0--0-----7--10-----|

PM PM PM PM PM PM PM
 
 |--3-| |--3--| |--3--| |--3--| |--3--| |--3--| 

Q E E E E E E E E E E E E E E E E H W
 
 -------------------------------------|-----------------------------|-------------------|
 -------------------------------------|-----------------------------|-------------------|
 -------------7-----------------------|-----------------------------|-------------------|
 --0-------------6--5-----------------|-----------2--3--0-----------|-------------------|
 --0-------5-----------8--------4--8--|--5--3--5--------------------|-------------------|
 --0----0-----------------7--8--------|-----------------------------|-------------------|

PM PM PM
 
 |--3-| |---3--| |--3--| |---3---| |----3---| |---3---| |--3-| |---3--| 

Q E E E E E E E E E E E E E E E E Q E E E E
 
 ----------------------------------------|---------------------------------------------|
 ----------------------------------------|---------------------------------------------|
 ----------------------------------------|---------------------------------------------|
 --0-------7s--5--7----------------------|---------------------------------------------|
 --0-------5s--3--5--------8-------------|--8s--10--10--10--5-------------0--3s--5--5--|
 --0----0------------0--0-----8--10--10--|--8s--10--10--10--5--3~--L----0--3s--5--5--|

Pre-Chorus:
PM PM PM PM PM PM PM PM
 
 |--3--| |--3--| |--3--| 

W H H E E E Q E E E E E E
 
 -------------------|--------------------|-----------------------------------|
 -------------------|--------------------|-----------------------------------|
 -------------------|--------------------|-----------------------------------|
 --3----------------|-----------5--------|-----------------------------------|
 --1----------------|--3--------3--------|-----------9\----------------------|
 -------------------|--3-----------------|--0--0--0--9\----0--3--1-----1--0--|

PM PM PM PM PM PM PM PM PM
 
 |--3--| |--3--| |--3--| 

E E E Q E E E E E E W H H
 
 -----------------------------------|-------------------|--------------------|
 -----------------------------------|-------------------|--------------------|
 -----------------------------------|-------------------|--------------------|
 -----------------------------------|--3----------------|-----------5--------|
 -----------8\----------------------|--1----------------|--3--------3--------|
 --0--0--0--8\----0--0--3--0--1--0--|-------------------|--3-----------------|

PM PM PM PM PM PM PM PM
 
 |--3--| |--3--| |--3--| |----3---| |---3---| |----3---| |--3--| 

E E E Q E E E E E E E E E E E E E E E E E E
 
 -----------------------------------|-------------------------------------------------|
 -----------------------------------|-------------------------------------------------|
 -----------------------------------|---------------------------9h--10--10--10--9--9--|
 -----------------------------------|--10h--12--12--12--10--10------------------------|
 -----------9\----------------------|-------------------------------------------------|
 --0--0--0--9\----0--3--1-----1--0--|-------------------------------------------------|

Chorus:
Q Q H Q Q H Q Q H
 
 ---------------------|----------------------|---------------------|
 ---------------------|----------------------|---------------------|
 --5----7-------------|--7----10-------------|--5----7-------------|
 ------------8--------|-------------7--------|------------8--------|
 ---------------------|----------------------|---------------------|
 ---------------------|----------------------|---------------------|
 |----3---| |--3--| |---3--| |--3--| 

E E E E E E E E E E E E Q Q H Q Q H
 
 -------------------------------------------|---------------------|----------------------|
 -------------------------------------------|---------------------|----------------------|
 ------------------------7h--8--8--8--7--7--|--5----7-------------|--7----10-------------|
 --8h--10--10--10--8--8---------------------|------------8--------|-------------7--------|
 -------------------------------------------|---------------------|----------------------|
 -------------------------------------------|---------------------|----------------------|
 |----3---| |--3--| |---3--| |--3--| 

Q Q H E E E E E E E E E E E E Q Q H
 
 ---------------------|-------------------------------------------|----------------------|
 ---------------------|-------------------------------------------|----------------------|
 --5----7-------------|------------------------7h--8--8--8--7--7--|--7----9--------------|
 ------------8--------|--8h--10--10--10--8--8---------------------|------------10--------|
 ---------------------|-------------------------------------------|----------------------|
 ---------------------|-------------------------------------------|----------------------|
 |----3---| |---3---| |----3---| |--3--| 

Q Q H Q Q H E E E E E E E E E E E E
 
 ----------------------|----------------------|-------------------------------------------------|
 ----------------------|----------------------|-------------------------------------------------|
 --9----12-------------|--7----9--------------|---------------------------9h--10--10--10--9--9--|
 -------------9--------|------------10--------|--10h--12--12--12--10--10------------------------|
 ----------------------|----------------------|-------------------------------------------------|
 ----------------------|----------------------|-------------------------------------------------|

Q Q H Q Q H Q Q H
 
 ----------------------|----------------------|----------------------|
 ----------------------|----------------------|----------------------|
 --7----9--------------|--9----12-------------|--7----9--------------|
 ------------10--------|-------------9--------|------------10--------|
 ----------------------|----------------------|----------------------|
 ----------------------|----------------------|----------------------|
 |----3---| |---3---| |----3---| |--3--| |----3---| |---3---| |----3---| |--3--| 

[E] [E] [E] [E] [E] [E] [E] [E] [E] [E] [E] [E] [E] [E] [E] [E] [E] [E] [E] [E] [E] [E] [E] [E]  
 
 -------------------------------------------------|-------------------------------------------------|
 -------------------------------------------------|-------------------------------------------------|
 ---------------------------9h--10--10--10--9--9--|---------------------------9h--10--10--10--9--9--|
 --10h--12--12--12--10--10------------------------|--10h--12--12--12--10--10------------------------|
 -------------------------------------------------|-------------------------------------------------|
 -------------------------------------------------|-------------------------------------------------|

Pre-Pre-Chorus:
PM PM PM PM
 
 |--3-| |---3--| |--3--| |---3--| |--3-| |--3--| |--3--| |--3--| 

Q E E E E E E E E E E Q E E E E E E E E E E
 
 ---------------------------------------|-------------------------------------|
 ---------------------------------------|-------------------------------------|
 ---------------------------------------|-------------7-----------------------|
 --0-------7s--5--7---------------------|--0-------------6--5-----------------|
 --0-------5s--3--5--------8---------7--|--0-------5-----------8--------4--8--|
 --0----0------------0--0-----7--10-----|--0----0-----------------7--8--------|

\1/ PM PM PM
 
 |--3--| |--3--| |--3-| |---3--| |--3--| |---3---| 

E E E E E E H W Q E E E E E E E E E E
 
 -----------------------------|-------------------|----------------------------------------|
 -----------------------------|-------------------|----------------------------------------|
 -----------4--5--------------|-------------------|----------------------------------------|
 --7--5--7--------7-----------|-------------------|--0-------7s--5--7----------------------|
 -----------------------------|-------------------|--0-------5s--3--5--------8-------------|
 --------------------0--------|--L----------------|--0----0------------0--0-----8--10--10--|
 |----3---| |---3---| |--3-| |---3--| 

E E E E E E Q E E E E
 
 ---------------------------------------------|
 ---------------------------------------------|
 ---------------------------------------------|
 ---------------------------------------------|
 --8s--10--10--10--5-------------0--3s--5--5--|
 --8s--10--10--10--5--3~--L----0--3s--5--5--|

Solo:
\2/ \1/
 
 |---3---| |---3---| 

[B] [B] [B] [B] [B] [E] [E] [E] [E] [E] [E]  
 
 -----------------------|--------------------|-----------------------------------|
 -----------------------|--------------------|-----------13--16--13--15--18--15--|
 -----------17--------|--L--------L--------|-----------------------------------|
 -----------------------|--------------------|-----------------------------------|
 -----------------------|--------------------|-----------------------------------|
 -----------------------|--------------------|-----------------------------------|

/1\
 
 |---3---| |---3---| |---3---| |---3---| |---3---| |---3---| 

E E E E E E S S S S S S S S S S S S H H
 
 -------------------------------------------------------------------------|-----------17--------|
 --16--20--16--15--18--15--16p-15h-16p-15h-16p-15h-16p-15h-16p-15h-16p-15-|-----------------------|
 -------------------------------------------------------------------------|-----------------------|
 -------------------------------------------------------------------------|-----------------------|
 -------------------------------------------------------------------------|-----------------------|
 -------------------------------------------------------------------------|-----------------------|

\1/ /1
Q H. H H W
 
 ---L----18------------|--L-------------------|-------------------|
 --------18------------|--L--------5--------|--L----------------|
 ----------------------|-----------5--------|--L----------------|
 ----------------------|----------------------|-------------------|
 ----------------------|----------------------|-------------------|
 ----------------------|----------------------|-------------------|

PM PM
 
 |---3---| |----3---| |----3---| |---3---| |---3---| |--3--| |--3--| 

E Q. E E E E E E E E E E E E E E E S S S S S S
 
 --------------10---------------10------|-----------------------------------------------------12-|
 --L--13b----------13--10-----------13--|--10-------10-------------------------------------13----|
 --L-----------------------12b----------|------12b------13--12--10----------10----------12-------|
 ---------------------------------------|---------------------------12--10-----------14----------|
 ---------------------------------------|-----------------------------------------15-------------|
 ---------------------------------------|--------------------------------------------------------|
 |-3-| |----3---| |---3---| |---3---| |--3--| 

E Q Q E E E E E E E Q E Q H
 
 --20--17b-----Lpbr----17--16--15--13------13--15br--|--L----13--------13b--------|
 --------------------------------------15------------|-----------15---------------|
 ----------------------------------------------------|----------------------------|
 ----------------------------------------------------|----------------------------|
 ----------------------------------------------------|----------------------------|
 ----------------------------------------------------|----------------------------|

PM PM PM PM PM PM PM PM
 
 |--3--| |--3--| |--3--| 

H H H. E E E E E E H. H. E E E
 
 --L-----------------|------------------------|------------------------|------------------------|
 --------------------|------------------------|------------------------|------------------------|
 --------------------|------------------------|------------------------|------------------------|
 --------------------|------------------------|--2--3------------------|------------------------|
 --------------------|---------------5--3--5--|--------0---------------|---------------5--3--5--|
 --------------------|------------------------|--------0---------------|------------------------|

PM PM
 
 |--3--| |--3--| |--3--| |--3--| |--3--| |--3--| 

E E E H. H. E E E E E E E E E E E E E E E
 
 ------------------------|------------------------|--------------------------------------|
 ------------------------|------------------------|--------------------------------------|
 ------------------------|------------------------|--------------------------------------|
 --2--3------------------|------------------------|--3--3--3--3--3--3--5--5--5--5--5--5--|
 --------0---------------|---------------0--0--0--|--1--1--1--1--1--1--3--3--3--3--3--3--|
 --------0---------------|---------------0--0--0--|--------------------------------------|
 |--3--| |--3--| |--3--| |--3--| 

[E] [E] [E] [E] [E] [E] [E] [E] [E] [E] [E] [E]  
 
 --------------------------------------|
 --------------------------------------|
 --2--2--2--2--2--2--5--5--5--5--5--5--|
 --0--0--0--0--0--0--3--3--3--3--3--3--|
 --------------------------------------|
 --------------------------------------|
 -----------------------------------------------------------------------------------------------

ROOPE
[-----]  
Intro:
PM PM PM PM PM PM PM PM PM PM PM PM PM PM PM PM PM PM PM PM PM PM PM PM
 
 |--3--| |--3--| |--3--| |--3--| |--3--| |--3--| |--3--| |--3--| 

[E] [E] [E] [E] [E] [E] [E] [E] [E] [E] [E] [E] [E] [E] [E] [E] [E] [E] [E] [E] [E] [E] [E] [E]  
 
 D||--------------------------------------|--------------------------------------|
 A||--------------------------------------|--------------------------------------|
 F||--------------------------------------|--------------------------------------|
 C||--7--7--7--7--7--7--7--7--7--7--7--7--|--7--7--7--7--7--7--7--7--7--7--7--7--|
 G||--------------------------------------|--------------------------------------|
 C||--------------------------------------|--------------------------------------|

PM PM PM PM PM PM PM PM PM PM PM PM
 
 |--3--| |--3--| |--3--| |--3--| |---3--| |--3--| |----3---| |---3---| 

[E] [E] [E] [E] [E] [E] [E] [E] [E] [E] [E] [E] [E] [E] [E] [E] [E] [E] [E] [E] [E] [E] [E] [E]  
 
 --------------------------------------|---------------------------------------------|
 --------------------------------------|---------------------------------------------|
 --------------------------------------|---------------------------------------------|
 --7--7--7--7--7--7--7--7--7--7--7--7--|--7h--8--8--8--8--8--8h--10--10--10--10--10--|
 --------------------------------------|---------------------------------------------|
 --------------------------------------|---------------------------------------------|

Main Riff:
PM PM PM PM
 
 |--3-| |---3--| |--3--| |---3--| |--3-| |--3--| |--3--| |--3--| 

Q E E E E E E E E E E Q E E E E E E E E E E
 
 ---------------------------------------|-------------------------------------|
 ---------------------------------------|-------------------------------------|
 ---------------------------------------|-------------7-----------------------|
 --0-------7s--5--7---------------------|--0-------------6--5-----------------|
 --0-------5s--3--5--------8---------7--|--0-------5-----------8--------4--8--|
 --0----0------------0--0-----7--10-----|--0----0-----------------7--8--------|

PM PM PM
 
 |--3-| |---3--| |--3--| |---3---| |----3---| |---3---| |--3-| |---3--| 

Q E E E E E E E E E E E E E E E E Q E E E E
 
 ----------------------------------------|--------------------------------------------|
 ----------------------------------------|--------------------------------------------|
 ----------------------------------------|--------------------------------------------|
 --0-------7s--5--7----------------------|--------------------------------------------|
 --0-------5s--3--5--------8-------------|--8s--10--10--10S--5S--3--L----0--3s--5--5--|
 --0----0------------0--0-----8--10--10--|--8s--10--10--10S--5S--3--L----0--3s--5--5--|

PM PM PM PM
 
 |--3-| |---3--| |--3--| |---3--| |--3-| |--3--| |--3--| |--3--| 

Q E E E E E E E E E E Q E E E E E E E E E E
 
 ---------------------------------------|-------------------------------------|
 ---------------------------------------|-------------------------------------|
 ---------------------------------------|-------------7-----------------------|
 --0-------7s--5--7---------------------|--0-------------6--5-----------------|
 --0-------5s--3--5--------8---------7--|--0-------5-----------8--------4--8--|
 --0----0------------0--0-----7--10-----|--0----0-----------------7--8--------|

PM PM PM
 
 |--3-| |---3--| |--3--| |---3---| |----3---| |---3---| |--3-| |---3--| 

Q E E E E E E E E E E E E E E E E Q E E E E
 
 ----------------------------------------|---------------------------------------------|
 ----------------------------------------|---------------------------------------------|
 ----------------------------------------|---------------------------------------------|
 --0-------7s--5--7----------------------|---------------------------------------------|
 --0-------5s--3--5--------8-------------|--8s--10--10--10--5-------------0--3s--5--5--|
 --0----0------------0--0-----8--10--10--|--8s--10--10--10--5--3~--L----0--3s--5--5--|

PM PM PM PM
 
 |--3-| |---3--| |--3--| |--3--| |--3-| |--3--| |--3--| |--3--| 

Q E E E E E E E E E E Q E E E E E E E E E E
 
 --------------------------------------|-------------------------------------|
 --------------------------------------|-------------------------------------|
 --------------------------------------|-------------2-----------------------|
 --0-------7s--5--7--------------2-----|--0-------------1--0--0--------------|
 --0-------5s--3--5--------5--3-----3--|--0-------1--------------------1--5--|
 --0----0------------0--0--------------|--0----0-----------------4--5--------|

PM PM PM
 
 |--3-| |---3--| |--3--| |--3--| |----3---| |---3---| |--3-| |---3--| 

Q E E E E E E E E E E E E E E E E Q E E E E
 
 --------------------------------------|--------------------------------------------|
 --------------------------------------|--------------------------------------------|
 --------------------------------------|--------------------------------------------|
 --0-------7s--5--7--------------2-----|--------------------------------------------|
 --0-------5s--3--5--------5--3-----3--|--8s--10--10--10S--5S--3--L----0--3s--5--5--|
 --0----0------------0--0--------------|--8s--10--10--10S--5S--3--L----0--3s--5--5--|

PM PM PM PM
 
 |--3-| |---3--| |--3--| |--3--| |--3-| |--3--| |--3--| |--3--| 

Q E E E E E E E E E E Q E E E E E E E E E E
 
 --------------------------------------|-------------------------------------|
 --------------------------------------|-------------------------------------|
 --------------------------------------|-------------2-----------------------|
 --0-------7s--5--7--------------2-----|--0-------------1--0--0--------------|
 --0-------5s--3--5--------5--3-----3--|--0-------1--------------------1--5--|
 --0----0------------0--0--------------|--0----0-----------------4--5--------|

PM PM PM
 
 |--3-| |---3--| |--3--| |--3--| |----3---| |---3---| |--3-| |---3--| 

Q E E E E E E E E E E E E E E E E Q E E E E
 
 --------------------------------------|--------------------------------------------|
 --------------------------------------|--------------------------------------------|
 --------------------------------------|--------------------------------------------|
 --0-------7s--5--7--------------2-----|--------------------------------------------|
 --0-------5s--3--5--------5--3-----3--|--8s--10--10--10S--5S--3--L----0--3s--5--5--|
 --0----0------------0--0--------------|--8s--10--10--10S--5S--3--L----0--3s--5--5--|

Verse:
PM PM PM PM PM PM PM PM PM
 
 |--3--| |--3--| |--3-| |---3--| |--3--| |---3--| 

E E E E E E H W Q E E E E E E E E E E
 
 -----------------------------|-------------------|---------------------------------------|
 -----------------------------|-------------------|---------------------------------------|
 --2--0--2--4--5--2-----------|-------------------|---------------------------------------|
 -----------------------------|-------------------|--0-------7s--5--7---------------------|
 -----------------------------|-------------------|--0-------5s--3--5--------8---------7--|
 -----------------------------|-------------------|--0----0------------0--0-----7--10-----|

PM PM PM PM PM PM PM
 
 |--3-| |--3--| |--3--| |--3--| |--3--| |--3--| 

Q E E E E E E E E E E E E E E E E H W
 
 -------------------------------------|-----------------------------|-------------------|
 -------------------------------------|-----------------------------|-------------------|
 -------------7-----------------------|--2--0--2--4--5--2-----------|-------------------|
 --0-------------6--5-----------------|-----------------------------|-------------------|
 --0-------5-----------8--------4--8--|-----------------------------|-------------------|
 --0----0-----------------7--8--------|-----------------------------|-------------------|

PM PM PM
 
 |--3-| |---3--| |--3--| |---3---| |----3---| |---3---| |--3-| |---3--| 

Q E E E E E E E E E E E E E E E E Q E E E E
 
 ----------------------------------------|--------------------------------------------|
 ----------------------------------------|--------------------------------------------|
 ----------------------------------------|--------------------------------------------|
 --0-------7s--5--7----------------------|--------------------------------------------|
 --0-------5s--3--5--------8-------------|--8s--10--10--10S--5S--3--L----0--3s--5--5--|
 --0----0------------0--0-----8--10--10--|--8s--10--10--10S--5S--3--L----0--3s--5--5--|

PM PM PM PM PM PM PM PM PM
 
 |--3--| |--3--| |--3-| |---3--| |--3--| |---3--| 

E E E E E E H W Q E E E E E E E E E E
 
 -----------------------------|-------------------|---------------------------------------|
 -----------------------------|-------------------|---------------------------------------|
 --2--0--2--4--5--2-----------|-------------------|---------------------------------------|
 -----------------------------|-------------------|--0-------7s--5--7---------------------|
 -----------------------------|-------------------|--0-------5s--3--5--------8---------7--|
 -----------------------------|-------------------|--0----0------------0--0-----7--10-----|

PM PM PM PM PM PM PM
 
 |--3-| |--3--| |--3--| |--3--| |--3--| |--3--| 

Q E E E E E E E E E E E E E E E E H W
 
 -------------------------------------|-----------------------------|-------------------|
 -------------------------------------|-----------------------------|-------------------|
 -------------7-----------------------|--2--0--2--4--5--2-----------|-------------------|
 --0-------------6--5-----------------|-----------------------------|-------------------|
 --0-------5-----------8--------4--8--|-----------------------------|-------------------|
 --0----0-----------------7--8--------|-----------------------------|-------------------|

PM PM PM
 
 |--3-| |---3--| |--3--| |---3---| |----3---| |---3---| |--3-| |---3--| 

Q E E E E E E E E E E E E E E E E Q E E E E
 
 ----------------------------------------|---------------------------------------------|
 ----------------------------------------|---------------------------------------------|
 ----------------------------------------|---------------------------------------------|
 --0-------7s--5--7----------------------|---------------------------------------------|
 --0-------5s--3--5--------8-------------|--8s--10--10--10--5-------------0--3s--5--5--|
 --0----0------------0--0-----8--10--10--|--8s--10--10--10--5--3~--L----0--3s--5--5--|

Pre-Chorus:
PM PM PM PM PM PM PM PM
 
 |--3--| |--3--| |--3--| 

W H H E E E Q E E E E E E
 
 -------------------|--------------------|-----------------------------------|
 -------------------|--------------------|-----------------------------------|
 -------------------|--------------------|-----------------------------------|
 --3----------------|-----------5--------|-----------------------------------|
 --1----------------|--3--------3--------|-----------9\----------------------|
 -------------------|--3-----------------|--0--0--0--9\----0--3--1-----1--0--|

PM PM PM PM PM PM PM PM PM
 
 |--3--| |--3--| |--3--| 

E E E Q E E E E E E W H H
 
 -----------------------------------|-------------------|--------------------|
 -----------------------------------|-------------------|--------------------|
 -----------------------------------|-------------------|--------------------|
 -----------------------------------|--3----------------|-----------5--------|
 -----------8\----------------------|--1----------------|--3--------3--------|
 --0--0--0--8\----0--0--3--0--1--0--|-------------------|--3-----------------|

PM PM PM PM PM PM PM PM
 
 |--3--| |--3--| |--3--| |---3--| |--3--| |----3---| |---3---| 

E E E Q E E E E E E E E E E E E E E E E E E
 
 -----------------------------------|---------------------------------------------|
 -----------------------------------|---------------------------------------------|
 -----------------------------------|---------------------------------------------|
 -----------------------------------|--7h--8--8--8--8--8--8h--10--10--10--10--10--|
 -----------9\----------------------|---------------------------------------------|
 --0--0--0--9\----0--3--1-----1--0--|---------------------------------------------|

Chorus:
PM PM PM PM PM PM PM PM
 
 |--3--| |--3--| |--3--| 

W H H E E E Q E E E E E E
 
 -------------------|--------------------|-----------------------------------|
 -------------------|--------------------|-----------------------------------|
 -------------------|--------------------|-----------------------------------|
 --3----------------|-----------5--------|-----------------------------------|
 --1----------------|--3--------3--------|-----------9\----------------------|
 -------------------|--3-----------------|--0--0--0--9\----0--3--1-----1--0--|

PM PM PM PM PM PM PM PM PM
 
 |--3--| |--3--| |--3--| 

E E E Q E E E E E E W H H
 
 -----------------------------------|-------------------|--------------------|
 -----------------------------------|-------------------|--------------------|
 -----------------------------------|-------------------|--------------------|
 -----------------------------------|--3----------------|-----------5--------|
 -----------8\----------------------|--1----------------|--3--------3--------|
 --0--0--0--8\----0--0--3--0--1--0--|-------------------|--3-----------------|

PM PM PM PM PM PM PM PM
 
 |--3--| |--3--| |--3--| |---3--| |--3--| |----3---| |---3---| 

E E E Q E E E E E E E E E E E E E E E E E E
 
 -----------------------------------|---------------------------------------------|
 -----------------------------------|---------------------------------------------|
 -----------------------------------|---------------------------------------------|
 -----------------------------------|--7h--8--8--8--8--8--8h--10--10--10--10--10--|
 -----------9\----------------------|---------------------------------------------|
 --0--0--0--9\----0--3--1-----1--0--|---------------------------------------------|

W H H W H H
 
 -------------------|--------------------|-------------------|--------------------|
 -------------------|--------------------|-------------------|--------------------|
 -------------------|--------------------|-------------------|--------------------|
 -------------------|--3-----------------|-------------------|--------------------|
 --5----------------|--1--------3--------|--5----------------|--6--------8--------|
 --5----------------|-----------3--------|--5----------------|--6--------8--------|

W H H W H H
 
 -------------------|--------------------|-------------------|--------------------|
 -------------------|--------------------|-------------------|--------------------|
 -------------------|--------------------|-------------------|--------------------|
 -------------------|--3-----------------|-------------------|--------------------|
 --5----------------|--1--------0--------|--5----------------|--6--------8--------|
 --5----------------|-----------0--------|--5----------------|--6--------8--------|

W H H W H H
 
 -------------------|--------------------|-------------------|---------------------|
 -------------------|--------------------|-------------------|---------------------|
 -------------------|--------------------|-------------------|---------------------|
 -------------------|--5-----------------|-------------------|---------------------|
 --7----------------|--3--------5--------|--7----------------|--8--------10--------|
 --7----------------|-----------5--------|--7----------------|--8--------10--------|

W H H W H H
 
 -------------------|--------------------|-------------------|---------------------|
 -------------------|--------------------|-------------------|---------------------|
 -------------------|--------------------|-------------------|---------------------|
 -------------------|--5-----------------|-------------------|---------------------|
 --7----------------|--3--------2--------|--7----------------|--8--------10--------|
 --7----------------|-----------2--------|--7----------------|--8--------10--------|

[B] [B]  
 
 ---------------------|
 ---------------------|
 ---------------------|
 ---------------------|
 --8--------10--------|
 --8--------10--------|

Pre-Pre-Chorus:
PM PM PM PM
 
 |--3-| |---3--| |--3--| |---3--| |--3-| |--3--| |--3--| |--3--| 

Q E E E E E E E E E E Q E E E E E E E E E E
 
 |---------------------------------------|-------------------------------------|
 |---------------------------------------|-------------------------------------|
 |---------------------------------------|-------------7-----------------------|
 |--0-------7s--5--7---------------------|--0-------------6--5-----------------|
 |--0-------5s--3--5--------8---------7--|--0-------5-----------8--------4--8--|
 |--0----0------------0--0-----7--10-----|--0----0-----------------7--8--------|

\1/ PM PM PM
 
 |--3--| |--3--| |--3-| |---3--| |--3--| |---3---| 

E E E E E E H W Q E E E E E E E E E E
 
 -----------------------------|-------------------|----------------------------------------|
 -----------------------------|-------------------|----------------------------------------|
 -----------4--5--------------|-------------------|----------------------------------------|
 --7--5--7--------7-----------|-------------------|--0-------7s--5--7----------------------|
 -----------------------------|-------------------|--0-------5s--3--5--------8-------------|
 --------------------0--------|--L----------------|--0----0------------0--0-----8--10--10--|
 |----3---| |---3---| |--3-| |---3--| 

E E E E E E Q E E E E
 
 ---------------------------------------------|
 ---------------------------------------------|
 ---------------------------------------------|
 ---------------------------------------------|
 --8s--10--10--10--5-------------0--3s--5--5--|
 --8s--10--10--10--5--3~--L----0--3s--5--5--|

Solo:
PM PM PM
 
 |--3--| |--3-| 

E E E Q E H W
 
 ----------------------------|-------------------|
 ----------------------------|-------------------|
 ----------------------------|-------------------|
 ----------------------------|-------------------|
 ----------------------------|-------------------|
 --6--6--6--5----6-----------|-------------------|
 --6--6--6--5----6-----------|-------------------|

PM PM PM
 
 |--3--| |--3-| |---3---| |---3---| 

E E E Q E E E E E E E
 
 -------------------------------------------|
 -------------------------------------------|
 -------------------13--17--13--15--19--15--|
 -------------------------------------------|
 --6--6--6--5----6--------------------------|
 --6--6--6--5----6--------------------------|
 |---3---| |---3---| |---3---| |---3---| |---3---| |---3---| 

E E E E E E S S S S S S S S S S S S
 
 -------------------------------------------------------------------------|
 -------------------------------------------------------------------------|
 --17--20--17--15--19--15--17p-15h-17p-15h-17p-15h-17p-15h-17p-15h-17p-15-|
 -------------------------------------------------------------------------|
 -------------------------------------------------------------------------|
 -------------------------------------------------------------------------|

PM PM PM PM PM PM
 
 |--3--| |--3-| |--3--| |--3-| 

E E E Q E H W E E E Q E E E Q
 
 ----------------------------|-------------------|------------------------------|
 ----------------------------|-------------------|------------------------------|
 ----------------------------|-------------------|------------------------------|
 ----------------------------|-------------------|------------------------------|
 --6--6--6--5----6-----------|-------------------|--6--6--6--5----6-----5--5----|
 --6--6--6--5----6-----------|-------------------|--6--6--6--5----6-----5--5----|

PM PM PM
 
 |--3--| |-3| |--3--| 

E Q E Q E E E E Q H. H. E E E
 
 ---------------------------|-----------------------|------------------------|
 ---------------------------|-----------------------|------------------------|
 ---------------------------|--4--5-----------------|------------------------|
 --3--3----5--5----7--5--7--|-----------------------|------------------------|
 --1--1----3--3-------------|-----------------------|---------------5--3--5--|
 ---------------------------|-----------------------|------------------------|

PM PM PM PM PM PM PM PM PM PM
 
 |--3--| |--3--| |--3--| |--3--| 

E E E H. H. E E E E E E H. H. E E E
 
 ------------------------|------------------------|------------------------|------------------------|
 ------------------------|------------------------|------------------------|------------------------|
 ------------------------|------------------------|------------------------|------------------------|
 --2--3------------------|------------------------|--2--3------------------|------------------------|
 --------0---------------|---------------5--3--5--|--------0---------------|---------------5--3--5--|
 --------0---------------|------------------------|--------0---------------|------------------------|

PM PM
 
 |--3--| |----3---| |--6--| |--6--| 

E E E H. H. Q S E. E E E S S S S S S Q
 
 ------------------------|----------------------|----------------------------------------------|
 ------------------------|----------------------|---------18s--19--15--------------------------|
 ------------------------|---------------13b----|--L-16----------------17----------------------|
 --2--3------------------|---------------14b----|--L----------------------19-16----------------|
 --------0---------------|----------------------|-------------------------------17-15-12-------|
 --------0---------------|----------------------|----------------------------------------12----|
 |----3---| |--3--| |--3--| 

Q Q S S S S S S S S Q E H Q. W
 
 ----------------------------------------------|-------------------------|----------------------|
 -------15g18----17-15-------------------------|-------------------------|----------------------|
 ----------------------17-15-------------------|-------------------------|--17br----------------|
 ----------------------------18-17-15-13~-L----|--L--15~--------17~------|----------------------|
 ----------------------------------------------|-------------------------|----------------------|
 --L-------------------------------------------|-------------------------|----------------------|

ORDER
[-----]  
Intro (x2)
Main Riff (A x2 / R x1)
Verse (x1)
Pre-Chorus (x1)
Chorus (x1)
Pre-Pre-Chorus (x1)
Pre-Chrous (x1)
Chorus (x0,5)
Solo (x1)
Chorus (x1)
Main Riff (x0,25)
Please rate & comment :) \m/
Copyright
Duration Legend
 
 ---------------

W - whole
H - half
Q - quarter
E - 8th
S - 16th
T - 32nd
X - 64th
. - note dotted
|-n-| - n-tuplets
Tablature Legend
 
 ----------------

L - tied note
x - dead note
g - grace note
(n) - ghost note
> - accentuded note
NH - natural harmonic
AH - artificial harmonic
TH - tapped harmonic
SH - semi harmonic
PH - pitch harmonic
h - hammer on
p - pull off
b - bend
br - bendRelease
pb - preBend
pbr - preBendRelease
brb - bendReleaseBend
\n/ - tremolo bar dip
\n - tremolo bar dive
-/n - tremolo bar Release up
/n\ - tremolo bar inverted dip
/n - tremolo bar return
-\n - tremolo bar Release down
S - shift slide
s - legato slide
/ - slide into from below or out of upwards
\ - slide into from above or out of downwards
~ - vibrato
W - wide vibrato
tr - trill
TP - tremolo picking
T - tapping
S - slap
P - pop
< - fade in
^ - brush up
v - brush down

Important: The song above is NOT stored on the Chordie server. The original song is hosted at www.guitaretab.com. Chordie works as a search engine and provides on-the-fly formatting. Chordie does not index songs against artists'/composers' will. To remove this song please click here.

Text color:
Chord color:
Chord grids: 
Font size:    
Page size: 

B E
Rate #2 of 2 versions

Login - add to songbook

SHARE PAGE  



You need to log in to post comments