Guitar Tabs, Chords and Lyrics
Server problems seems to be fixed. Chordie has been experiencing problems with songs disappearing. These issues now seems to be fixed, but still verifying the fix. If you find anything strange, please email admin@chordie.com.


Sama Nainen  Chisu

 
 -------------------------------------------------------------------------

SAMA NAINEN - Chisu
 
 -------------------------------------------------------------------------

Tabbed by: Kengus
Standard tuning
Capo on first fret!
INTRO
[Em] [C/G]  
 
 e|-------------------------------------------------------------------|
 B|-------------------------------------------------------------------|
 G|-----0-------0-------0-------0--------0-------0-------0-------0----|
 D|-2-------2-------2-------2--------2-------2-------2-------2--------|
 A|---2---2---2---2---2---2---2---2--3-3---3---3---3---3---3---3---3--|
 E|-0-----------------------------------------------------------------|

VERSE
[Em] [C/G] [G]  
 
 e|-----------------------------------------------------------------------|
 B|-----------------------------------------------------------------------|
 G|-----0-------0-------0-------0--------0-------0-------0-------0--------|
 D|-2-------2-------2-------2--------2-------2-------2-------2--------0---|
 A|---2---2---2---2---2---2---2---2--3-3---3---3---3---3---3---3---3----2-|
 E|-0-----------------------------------------------------------------3---|

[D]  
 
 e|--------------------------------------------------------------|VERSE1 x2
 B|--------------------------------------------------------------|
 G|-0-------0-------0-------0------------------------------------|VERSE2 x1
 D|-----0-------0-------0------------4-------4-------4-------4---|
 A|---2---2---2---2---2---2---2--5-------5-------5-------5-------|OUTRO x1
 E|------------------------------5-5---5---5---5---5---5---5---5-| (+ C, Em)

CHORUS (1)
[C/G] [Em]  
 
 e|-3----3----3---3----3----3---3----3----3---3----3----3----3----3----3--|
 B|---5----5----5---5----5----5---5----5----5---5----5----5----5----5----5|
 G|-----5----5--------5----5--------5----5--------5----5---------4----4---|
 D|-----------------------------------------------------------------------|
 A|-----------------------------------------------------------------------|
 E|-----------------------------------------------------------------------|

[G]  
 
 e|-3----3----3---3----3----3---3----3----5----7----7----7---7----7----7--|
 B|---5----5----5---5----5----5---5----5----7----8----8----8---8----8----8|
 G|-----4----4--------4----4--------4----4---------7----7--------7----7---|
 D|-----------------------------------------------------------------------|
 A|-----------------------------------------------------------------------|
 E|-----------------------------------------------------------------------|

[D] [Em]  
 
 e|-5----5----5---5----5----5----3----3----3---3----3----3---3----3----3--|
 B|---7----7----7---7----7----7----5----5----5---5----5----5---5----5----5|
 G|-----7----7--------7----7---------4----4--------4----4--------4----4---|
 D|-----------------------------------------------------------------------|
 A|-----------------------------------------------------------------------|
 E|-----------------------------------------------------------------------|

[D] [C/G]  
 
 e|-2----2----2----3----3----3---3----3----3---3----3----3---|
 B|---3----3----3----5----5----5---5----5----5---5----5----5-|
 G|-----2----2---------5----5--------5----5--------5----5----|
 D|----------------------------------------------------------|
 A|----------------------------------------------------------|
 E|----------------------------------------------------------|

VERSE1 (Capo 1. nauhalla)
Luvattu on [Em]paljon, rikottu enem[C/G]män
Vierelläsi [G]valvon ja kauniina sut [D]nään
Sä oot se, [Em]jonka löydän aina uudel[C/G]leen
Taas tässä oon ja [G]valmis uuteen kierro[D]kseen
CHORUS
Mut mussa ei oo [C/G]mitään, mussa ei oo [Em]mitään uutta
Oon vielä saman[G]lainen
Sama [D]mieli, sama sydän, sama [Em]nainen[D] [C/G]
VERSE2
Mä muistan [Em]kyllä ne kirosanat ja syyt[C/G]telyn
Ja anteeksi [G]annan jopa sen pahoinpite[D]lyn
CHORUS
Mut mä en lupaa[C/G] mitään, mä en lupaa[Em] mitään muuta
Oon vielä saman[G]lainen
Sama [D]mieli, sama sydän, sama [Em]nainen
CHORUS
[D]Mä en lupa[C/G]a mitään, en enää lupa[Em]a mitään muuta
Oon vielä saman[G]lainen
Sama [D]mieli, sama sydän, sama [Em]nainen
OUTRO
Sanonut oon [Em]kaiken, yö vaihtuu a[C/G]amuun
Jos sä vielä [G]haluut, takas mä [D]tuun
Mmm[C/G]hhhh
Mmmhh[Em]hh.
=========================================================================

Important: The song above is NOT stored on the Chordie server. The original song is hosted at www.guitaretab.com. Chordie works as a search engine and provides on-the-fly formatting. Chordie does not index songs against artists'/composers' will. To remove this song please click here.

Text color:
Chord color:
Chord grids: 
Font size:    
Page size: 

C/G D Em G
Rate #1 of 2 versions

Jango Player

Login - add to songbook

SHARE PAGE  



You need to log in to post comments