Guitar Tabs, Chords and Lyrics
Major upgrade!! After one year development the new version of Chordie is now online! Please give feedback.


Lost in You  Garth Brooks

 
 -------------------------------------------------------------------------------

Lost In You - Chris Gaines
 
 -------------------------------------------------------------------------------

en.wikipedia.org/wiki/Chris_Gaines
Tabbed by: Per Budtz-Jørgensen
Email: budtz38@hotmail.com
Tuning: DGCFAd (tune down one whole step)
This is a really beautiful song. I'm pretty sure this is the way it's played on the
album. The chords I write are relative to the tuning - the actual chords are one whole
step down (ex. if I write Hm7, the actual chord is Am7 etc.)
VERSE RHYTHM FIG.:
N/C Hm7 E7sus Em7 D7sus D7 G
 
 d|------------------2-----2--------------7--------------5--------------------|
 A|------------------3-----3----10----8---8----8-----7---7----0---------------|
 F|--0-0h2-0---------2-----2----7-----7---7------5---5---5----0---0-0h2-0-----|
 C|4---------4-0---4-----4------9-----9---9--------7-7---7----0-4---------4-0-|
 G|--------------2-----2--------7-----7---7----5-----5---5----2*--------------|
 D|-----------------------------------------------------------3*--------------|

* let ring
Hm7 E7sus Em7 D/c C Am9 Am7 D
 
 d|----2-----2--------------7--------------------------------------------0----|
 A|----3-----3----10----8---8----7----------8-----0-------1----1/3---3-----3--|
 F|----2-----2----7-----7---7------7---9----9-----5-----0------2/4-----2-----2|
 C|--4-----4------9-----9---9--------7-10---10----5---2--------0--------------|
 G|2-----2--------7-----7---7---------------------0---------------------------|
 D|------------------------------8-----8--------------------------------------|

Am9 Am7 Cm/eb
 
 d|--------------------|
 A|0-------1-------1---|
 F|5-----0-------0---0-|
 C|5---2-------1-------|
 G|0-------------------|
 D|--------------------|

CHORUS (I'll just write the chords):
Heaven k[Am9]nows
I'm h[G]ead over h[Em7]eels and it s[Am9]hows
I've pl[G]ayed every f[Em7]ield I su[Am9]ppose
-/h Cmaj H7
But there's something about you
W[Em7]hen you're aro[D]und
Baby[C#mb5] I have f[Bm7]ound
I get [Cmaj]lost in you
END OF 2nd CHORUS:
I get [Cmaj]lost in a wonderful d[D9]aze
Ebmaj C/e
Lost in your wonderful ways (solo...)
CHORDS:
Hm7 E7sus Em7 D7sus D7 G D/c C Am9 Am7 D Cm/eb Cmaj H7 C#m7b5 D9 Ebmaj C/e
 
 d|2-----7----7----5---5--------8--0---0-(2)-(3)---3---2---------0----6-------|
 A|3-----10---8----8---7--0--7--8--0---1--3---1----5---4----5----3----8----5--|
 F|2-----7----7----5---5--0--7--9--5---0--2---0----4---2----4----2----7----5--|
 C|4-----9----9----7---7--0--7--10-5---2--0---1----5---4----5----0----8----5--|
 G|2-----7----7----5---5--2--x--10-0---0-----------3---2----4---------6----7--|
 D|-----------------------3--8--8---------------------------------------------|

| / slide up
| \ slide down
| h hammer-on
| p pull-off
| ~ vibrato
| + harmonic
| x Mute note
===============================================================================

Important: The song above is NOT stored on the Chordie server. The original song is hosted at www.guitaretab.com. Chordie works as a search engine and provides on-the-fly formatting. Chordie does not index songs against artists'/composers' will. To remove this song please click here.

Text color:
Chord color:
Chord grids: 
Font size:    
Page size: 

Bm7 Cmaj D Em7 G
Rate #1 of 2 versions

Jango Player

Login - add to songbook

SHARE PAGE  




You need to log in to post comments