Guitar Tabs, Chords and Lyrics
Major upgrade!! After one year development the new version of Chordie is now online! Please give feedback.


Famous One  Chris Tomlin

time 2/4
Key G
 
 E|--3----3--3--3----3--3-|
 B|--0----3--1--0----1--3-|
 G|--0----2--0--0----0--0-|
 D|--0----0--0--0----0--0-|
 A|-----------------------|
 E|--3----3--3--3----3--3-|

Intro (2 bars)
[G] [G9] [Gsus4] [G] [G] [G9] [Gsus4] [G]  
Chorus ()
[G]You are the [G/B]Lord
The [C]famous one, [C]famous one
[Em]Great is Your [D]name in all the [C]earth
[G]The heavens de-[G/B]clare
You're [C]glorious, [C]glorious
[Em]Great is Your [D]fame beyond the ...
 
 E|-----------------------------------------|
 B|--10--7--8--10--7------8--5--6--8--5--6--|
 G|-----------------------------------------|
 D|--7---4--5--7---4------5--2--3--5--2--3--|
 A|-----------------------------------------|
 E|-----------------------------------------|

Break ()
| G | | | | C | | | ^ |
earth
(quarter note rest at end of this one)
Do this in the verse starting on the Em then on the G
 
 E|------15------14------12------10---------3-----5------12------10--|
 B|------------------------------------------------------------------|
 G|--16------14------12------11----------4-----5-----12------11------|
 D|------------------------------------------------------------------|
 A|------------------------------------------------------------------|
 E|------------------------------------------------------------------|

Verse (0:49)
For [Am7]all You've done and [Em]yet to do
With [C]every breath I'm [G]praising You
De-[Am7]sire of the nations and [Em]every heart
You a-[C]lone are God
You a-[D]lone are God
Chorus (1:19)
[G]You are the [G/B]Lord
The [C]famous one, [C]famous one
[Em]Great is Your [D]name in all the [C]earth
[G]The heavens de-[G/B]clare
You're [C]glorious, [C]glorious
[Em]Great is Your [D]fame beyond the ...
| G | | | | C | | | ^ |
earth
(quarter note rest at end of this one)
Verse (1:59)
The [Am7]morning star is shin[Em]ing through
And e[C]very eye is watch[G]ing You
Rev[Am7]ealed by nature and mira[Em]cles
You ar[C]e beautiful
You ar[D]e beautiful (one beat stop at end of this one; band pauses)
Chorus (2:29)
[G]You are the [G/B]Lord
The [C]famous one, [C]famous one
[Em]Great is Your [D]name in all the [C]earth
[G]The heavens de-[G/B]clare
You're [C]glorious, [C]glorious
[Em]Great is Your [D]fame beyond the [G]earth
Chorus (3:00)
[G]You are the [G/B]Lord
The [C]famous one, [C]famous one
[Em]Great is Your [D]name in all the [C]earth
[G]The heavens de-[G/B]clare
You're [C]glorious, [C]glorious
[Em]Great is Your [D]fame beyond the ...
| G | | | | C | | | |
earth
(NO REST on END of this one)
Chorus (3:40)
[G]You are the [G/B]Lord
The [C]famous one, [C]famous one
[Em]Great is Your [D]name in all the [C]earth
[G]The heavens de-[G/B]clare
You're [C]glorious, [C]glorious
[Em]Great is Your [D]fame beyond the [G]earth
*****
Enhanced Chorus Chords
[G] [G7/B] [C9] [Em] [D] [C]  
 
 E|--3----2----0----0--2--3--|
 B|--3----3----3----0--3--1--|
 G|--0----0----0----0--2-----|
 D|--0----0----2----2--0--2--|
 A|--2----2----3----2-----3--|
 E|--3--------------0--------|

I like how the last C with the G on top implies the G chord we'll return to
in a moment on the second pass

Important: The song above is NOT stored on the Chordie server. The original song is hosted at www.guitaretab.com. Chordie works as a search engine and provides on-the-fly formatting. Chordie does not index songs against artists'/composers' will. To remove this song please click here.

Text color:
Chord color:
Chord grids: 
Font size:    
Page size: 

Am7 C C9 D Em G G/B G7/B G9 Gsus4
Rate #1 of 7 versions

Jango Player

Login - add to songbook

SHARE PAGE  




You need to log in to post comments