Guitar Tabs, Chords and Lyrics
Major upgrade!! After one year development the new version of Chordie is now online! Please give feedback.


Awakening  Chris Tomlin

From "Passion: Awakening"
I did all the tabs relative to capo 1 since his vocals are WAY up there, that
way it's easier to play it 1 half step down in D (with no capo). If you want
to play it with the album, move all the tabs one fret up.
82 BPM
Album - Capo 1
Verse 1:
In our he[D]arts Lord, in this [A]nation[G] awakenin[D]g
Holy S[D]pirit we des[A]ire[G] awakening[D]
Chorus:
For You and [G]You alone, awa[Bm]ke my soul, aw[D]ake my soul and s[A]ing
For the [G]world You love, Your [Bm]will be done, let Your w[D]ill be done in [A]me
Verse 2:
In Your p[D]resence, in Your [A]power[G], awakeni[D]ng
For this [D]moment, for this [A]hour,[G] awakenin[D]g
Chorus
Instrumental:
[G] [-] [Em7] [-] [Bm] [-] [D]  
[Em7] [-] [G] [-] [Asus] [-] [A]  
Bridge:
Like the rising [Em7]sun that shines,[G] from the darkness[Bm] comes a light[D]
I hear Your voice and [Em7]this is my [G] awaken[Em7]ing[Asus]
Like the rising [G]sun that shines,[Em7] from the darkness c[Bm]omes a light[D]
I hear Your voice and [Em7]this is my[G] awake[Asus]ning
Instrumental 2:
G - Bm - D - A x2
Outro:
Like the rising su[G]n that shines, aw[Bm]ake my soul, aw[D]ake my soul and sin[A]g
From the darkness [G]comes a light, aw[Bm]ake my soul, aw[D]ake my soul and sin[A]g
Like the rising su[G]n that shines, aw[Bm]ake my soul, aw[D]ake my soul and sin[A]g
Only You can raise[G] a life, aw[Bm]ake my soul, aw[D]ake my soul and sin[A]g
Tab (relative to capo 1)
Piano intro/verse, over and over again (bass gtr plays bass notes)
 
 e|---------------------------------------------------------------------|
 B|---------------------------------------------------------------------|
 G|--7---6--------------------------------------------------------------|
 D|----7---7------------------------------------------------------------|
 A|---------------------------------------------------------------------|
 E|---------------------------------------------------------------------|

Chorus (relative to Capo 1)
[G] [Bm] [D] [A]  
 
 e|---------------------------------------------------------------------|
 B|--8----7----10---10--------------------------------------------------|
 G|--7----7----7----9---------------------------------------------------|
 D|--9----7----7----7---------------------------------------------------|
 A|---------------------------------------------------------------------|
 E|---------------------------------------------------------------------|

Bridge and outro (relative to Capo 1)
 
 |-------------------------------------------|
 |-12-12-12-12-12-12-14-14-15-15-15-15-15-15-|
 |-------------------------------------------|
 |-------------------------------------------|
 |-------------------------------------------|
 |-------------------------------------------|
 |-12-12-14-14-14-14-------------12-12-12-12-12-12-12-12-|
 |-------------------------------------------------------|
 |-------------------14-14-14-14-------------------------|
 |-------------------------------------------------------|
 |-------------------------------------------------------|
 |-------------------------------------------------------|

Let me know if you have any input or corrections.

Important: The song above is NOT stored on the Chordie server. The original song is hosted at www.guitaretab.com. Chordie works as a search engine and provides on-the-fly formatting. Chordie does not index songs against artists'/composers' will. To remove this song please click here.

Text color:
Chord color:
Chord grids: 
Font size:    
Page size: 

A Asus Bm D Em7 G
Rate #1 of 9 versions

Jango Player

Login - add to songbook

SHARE PAGE  



You need to log in to post comments