Guitar Tabs, Chords and Lyrics
Major upgrade!! After one year development the new version of Chordie is now online! Please give feedback.


King of Glory  Chris Tomlin

 
 -------------------------------------------------------------------------------

King of Glory by Chris Tomlin
 
 -------------------------------------------------------------------------------

Tabbed by: George Juggles
Tuning: Standard
Intro
 
 e|---------------------------------------------------------------------------|
 B|------0--------------------------------------------------------------------|
 G|--2-------2---0------------------------------------------------------------|
 D|------------------2--------------------------------------------------------|
 A|---------------------------------------------------------------------------|
 E|---------------------------------------------------------------------------|

Verse
[G] [Cadd9]  
 
 e|---------------------------------------------------------------------------|
 B|---------------------------------------------------------------------------|
 G|----------0-------------0--------------0--------------0-------------0------|
 D|----------0-------------0--------------0--------------0-------------2------|
 A|-------------------------------------------------------------3--3----------|
 E|---3--3-------3--3--3--------3--3--3--------3--3--3-------3----------------|

[Em7]  
 
 e|---------------------------------------------------------------------------|
 B|---------------------------------------------------------------------------|
 G|-------------0--------------0-------------0-------------0-------------0----|
 D|-------------2--------------2-------------2-------------2-------------2----|
 A|---3--3--3--------3--3--3-------3--3--3-------3----------------------------|
 E|-------------------------------------------------0--0-------0--0--0--------|

[Cadd9]  
 
 e|---------------------------------------------------------------------------|
 B|---------------------------------------------------------------------------|
 G|-------------0-------------0-------------0------------0-------------0------|
 D|-------------2-------------2-------------2------------2-------------2------|
 A|----------------------------------3--3-------3--3--3------3--3--3----------|
 E|---0--0--0-------0--0--0-------0-------------------------------------------|
 e|---------------------------------------------------------------------------|
 B|---------------------------------------------------------------------------|
 G|-------------0-------------------------------------------------------------|
 D|-------------2-------------------------------------------------------------|
 A|---3--3--3-------3---------------------------------------------------------|
 E|---------------------------------------------------------------------------|

Chorus
[G] [Cadd9]  
 
 e|---------------------------------------------------------------------------|
 B|---------------------------------------------------------------------------|
 G|----------0-------------0--------------0--------------0-------------0------|
 D|----------0-------------0--------------0--------------0-------------2------|
 A|-------------------------------------------------------------3--3----------|
 E|---3--3-------3--3--3--------3--3--3--------3--3--3-------3----------------|

[Em7]  
 
 e|---------------------------------------------------------------------------|
 B|---------------------------------------------------------------------------|
 G|-------------0--------------0-------------0-------------0-------------0----|
 D|-------------2--------------2-------------2-------------2-------------2----|
 A|---3--3--3--------3--3--3-------3--3--3-------3----------------------------|
 E|-------------------------------------------------0--0-------0--0--0--------|

[Cadd9]  
 
 e|---------------------------------------------------------------------------|
 B|---------------------------------------------------------------------------|
 G|-------------0-------------0-------------0------------0-------------0------|
 D|-------------2-------------2-------------2------------2-------------2------|
 A|----------------------------------3--3-------3--3--3------3--3--3----------|
 E|---0--0--0-------0--0--0-------0-------------------------------------------|

[G]  
 
 e|---------------------------------------------------------------------------|
 B|---------------------------------------------------------------------------|
 G|-------------0-------------0-------------0-------------0-------------0-----|
 D|-------------2-------------0-------------0-------------0-------------0-----|
 A|---3--3--3-------3---------------------------------------------------------|
 E|--------------------3--3-------3--3--3-------3--3--3-------3--3--3-------3-|

Bridge
[Cadd9] [D] [Em7]  
 
 e|----------3-------------3--------------2-------------2---------------------|
 B|----------3-------------3--------------3-------------3-------------3-------|
 G|----------0-------------0--------------2-------------2-------------0-------|
 D|----------2-------------2-------0--0-------0--0--0-------0---------2-------|
 A|---3--3-------3--3--3-------3--------------------------------------2-------|
 E|------------------------------------------------------------0--0-----------|

[G] [Cadd9]  
 
 e|---------------------------3------------3-------------3-------------3------|
 B|-------------3-------------3------------3-------------3-------------3------|
 G|-------------0-------------0------------0-------------0-------------0------|
 D|-------------2-------------0------------0-------------2-------------2------|
 A|-------------2---------------------------------3--3-------3--3--3-------3--|
 E|---0--0--0-------0--3--3------3--3--3-------3------------------------------|

[D] [Em7] [Cadd9]  
 
 e|----------2-------------2----------------------------------3---------------|
 B|----------3-------------3-------------3-------------3------3---------------|
 G|----------2-------------2-------------0-------------0------0---------------|
 D|---0--0-------0--0--0-------0---------2-------------2------2? Let ring ----|
 A|--------------------------------------2-------------2------3---------------|
 E|-------------------------------0--0-------0--0--0-------0------------------|

Outro
[G] [Cadd9]  
 
 e|---------------------------------------------------------------------------|
 B|---------------------------------------------------------------------------|
 G|----------0-------------0--------------0--------------0-------------0------|
 D|----------0-------------0--------------0--------------0-------------2------|
 A|-------------------------------------------------------------3--3----------|
 E|---3--3-------3--3--3--------3--3--3--------3--3--3-------3----------------|

[Em7]  
 
 e|---------------------------------------------------------------------------|
 B|---------------------------------------------------------------------------|
 G|-------------0--------------0-------------0-------------0-------------0----|
 D|-------------2--------------2-------------2-------------2-------------2----|
 A|---3--3--3--------3--3--3-------3--3--3-------3----------------------------|
 E|-------------------------------------------------0--0-------0--0--0--------|

[Cadd9]  
 
 e|---------------------------------------------------------------------------|
 B|---------------------------------------------------------------------------|
 G|-------------0-------------0-------------0------------0-------------0------|
 D|-------------2-------------2-------------2------------2-------------2------|
 A|----------------------------------3--3-------3--3--3------3--3--3----------|
 E|---0--0--0-------0--0--0-------0-------------------------------------------|

So That is the song. This is my first tab, so I hope you like it.
************************************
| / slide up
| \ slide down
| h hammer-on
| p pull-off
| ~ vibrato
| + harmonic
| x Mute note
| b Bend
| pb Pre-bend
| br Bend release
| pbr Pre-bend release
| brb Bend release bend
************************************

Important: The song above is NOT stored on the Chordie server. The original song is hosted at www.guitaretab.com. Chordie works as a search engine and provides on-the-fly formatting. Chordie does not index songs against artists'/composers' will. To remove this song please click here.

Text color:
Chord color:
Chord grids: 
Font size:    
Page size: 

Cadd9 D Em7 G
Rate #2 of 4 versions

Jango Player

Login - add to songbook

SHARE PAGE  



You need to log in to post comments