Guitar Tabs, Chords and Lyrics
Server problems seems to be fixed. Chordie has been experiencing problems with songs disappearing. These issues now seems to be fixed, but still verifying the fix. If you find anything strange, please email admin@chordie.com.


I Will Follow  Chris Tomlin

 
 -------------------------------------------------------------------------------

I WILL FOLLOW (acoustic version) - Chris Tomlin
 
 -------------------------------------------------------------------------------

Tabbed by: JeremyWoods
Tuning: Capo 1
INTRO (originally played with two guitars, I have tabbed it so one guitarist may
play it!) I found it easiest if played with all four fingers on fretboard hand.
 
 e|---------0-------|---------0-------|---------0-------|-------0-------0-|
 B|-0h2p0-------2---|-0h2p0-------2---|-0h2p0-------2---|-0h2p0---0h2p0---|
 G|-------2-1h2---2-|-------2-1h2---2-|-------2-1h2---2-|---------1-------|
 D|-----------------|-0---------------|-----------------|-2---------------|
 A|-----------------|-----------------|-0---------------|-----------------|
 E|-2---------------|-----------------|-----------------|-----------------|

Verse 1
[D]All Your ways are good[F#m7]
All Your ways are sure[E]
I will tr[A]ust in Yo[E/G#]u alone[D]
Higher than my sight[F#m7]
High above my life[E]
I will t[A]rust in You alone[D]
In Yo[E]u alone
Chorus
 
 e|---------0-------|---------0-------|---------0-------|-------0-------0-|
 B|-0h2p0-------2---|-0h2p0-------2---|-0h2p0-------2---|-0h2p0---0h2p0---|
 G|-------2-1h2---2-|-------2-1h2---2-|-------2-1h2---2-|---------1-------|
 D|-----------------|-0---------------|-----------------|-2---------------|
 A|-----------------|-----------------|-0---------------|-----------------|
 E|-2---------------|-----------------|-----------------|-----------------|

(Chris Tomlin adds support by strumming these chords except he simplifies it by
having his capo on the 3rd fret and playing Em, C, G, D)
[F#m7] Where You go, I'll go[D2]
Where You stay, I'll stay[A]
When You move, I'll move[E]
I will follow You
[F#m7] Who You love, I'll love[D2]
How You serve I'll serve[A]
E F#m7, D2
If this life I lose, I will follow You
I will follow You[A] [E]
Instrumental (before 2nd verse)
 
 e|---------0-------|---------0-------|
 B|-0h2p0-------2---|-0h2p0-------2---|
 G|-------2---2---2-|-------2---2---2-|
 D|-0---------------|-0---------------|
 A|-----------------|-----------------|
 E|-----------------|-----------------|

Verse 2
[D]Light unto the world[F#m7]
Light unto my life[E]
I will l[A]ive for You[E] alone[D]
You're the one I seek[F#m7]
Knowing I will find[E]
All I ne[A]ed in You alone, [D]in You alone[E]
(Repeat Chorus)
Bridge
[D]In You there's life[A] everlastin[E]g
[D]In You there's free[A]dom for my so[E]ul
[D]In You there's joy,[A] unending jo[E]y[D]
[A]and I will follow[E]
| h hammer-on
| p pull-off

Important: The song above is NOT stored on the Chordie server. The original song is hosted at www.guitaretab.com. Chordie works as a search engine and provides on-the-fly formatting. Chordie does not index songs against artists'/composers' will. To remove this song please click here.

Text color:
Chord color:
Chord grids: 
Font size:    
Page size: 

A D D2 E E/G# F#m7
Rate #1 of 14 versions

Jango Player

Login - add to songbook

SHARE PAGE  




You need to log in to post comments