Guitar Tabs, Chords and Lyrics
Major upgrade!! After one year development the new version of Chordie is now online! Please give feedback.


Unfailing Love  Chris Tomlin

Title: Unfailing Love
Vocalist: Chris Tomlin
Genre: Solemn Rock
Capo 1
Tabbed by: Mark Larry S. Saquing
Intro:
[G] [G] [G] [G]  
 
 e|--------------------------------------------------|
 B|--------------------------------------------------|
 G|--------------------------------------------------|
 D|-8/10-10-10--8h10-10-10----8h10-10-10--8h10-10-10-|
 A|--------------------------------------------------|
 E|--------------------------------------------------|

VERSE 1
You have m[G]y heart
And I am [C]Yours [G]forev[Am]er
You are my [G]strength
God of g[C]race [G]and [Am]power
PRE CHORUS
And e[G]veryt[C]hing You h[G]old in Your h[D]and
Still You make [G]time for [C]me
I can't un[D]derstand
 
 e|----------------5h6-6-4-4-------------------------|
 B|--------------------------------------------------|
 G|--------------------------------------------------|
 D|--------------------------------------------------|
 A|--------------------------------------------------|
 E|--------------------------------------------------|

CHORUS
P[G]raise You God of [D/F]Earth and sky
How be[Em]autiful is Y[D]our unfailing l[C]ove
 
 e|----------5h6-6-4-5-2/4---------------------------|
 B|--------------------------------------------------|
 G|--------------------------------------------------|
 D|--------------------------------------------------|
 A|--------------------------------------------------|
 E|--------------------------------------------------|

Unfailing l[D]ove
 
 e|------------5h6-5-3-------------------------------|
 B|--------------------------------------------------|
 G|--------------------------------------------------|
 D|--------------------------------------------------|
 A|--------------------------------------------------|
 E|--------------------------------------------------|

[G]And You never chang[D/F]e God You remain
The [Em]Holy One, [D]My unfailing lo[C]ve
 
 e|----------5h6-6-4-5-2/4---------------------------|
 B|--------------------------------------------------|
 G|--------------------------------------------------|
 D|--------------------------------------------------|
 A|--------------------------------------------------|
 E|--------------------------------------------------|

Unfailing l[D]ove
VERSE 2
You are my [G]rock
The one I [C]hold[G] on t[Am]o
You are my s[G]ong
And I s[C]ing [G]for Y[Am]ou
 
 e|----------------8-8h9-9/10------------------------|
 B|--------------------------------------------------|
 G|--------------------------------------------------|
 D|--------------------------------------------------|
 A|--------------------------------------------------|
 E|--------------------------------------------------|

PRE CHORUS
And e[G]veryt[C]hing You h[G]old in Your h[D]and
 
 e|---------------------------------9h10-11----------|
 B|--------------------------------------------------|
 G|--------------------------------------------------|
 D|--------------------------------------------------|
 A|--------------------------------------------------|
 E|--------------------------------------------------|

Still You make [G]time for [C]me
 
 e|-----------------------6-8------------------------|
 B|--------------------------------------------------|
 G|--------------------------------------------------|
 D|--------------------------------------------------|
 A|--------------------------------------------------|
 E|--------------------------------------------------|

I can't un[D]derstand
 
 e|---------------5h6-6-4-5--------------------------|
 B|--------------------------------------------------|
 G|--------------------------------------------------|
 D|--------------------------------------------------|
 A|--------------------------------------------------|
 E|--------------------------------------------------|

CHORUS
P[G]raise You God of [D/F]Earth and sky
How be[Em]autiful is Y[D]our unfailing l[C]ove
Unfailing l[D]ove
 
 e|-----------11-5h6-6-4-----------------------------|
 B|--------------------------------------------------|
 G|--------------------------------------------------|
 D|--------------------------------------------------|
 A|--------------------------------------------------|
 E|--------------------------------------------------|

[G]And You never chang[D/F]e God You remain
The [Em]Holy One, [D]My unfailing lo[C]ve
Unfailing l[D]ove
PRE CHORUS
And e[G]veryt[C]hing You h[G]old in Your h[D]and
 
 e|---------------------------------4h6-6------------|
 B|--------------------------------------------------|
 G|--------------------------------------------------|
 D|--------------------------------------------------|
 A|--------------------------------------------------|
 E|--------------------------------------------------|

Still You make [G]time for [C]me
I can't un[D]derstand
CHORUS
P[G]raise You God of [D/F]Earth and sky
How be[Em]autiful is Y[D]our unfailing l[C]ove
Unfailing l[D]ove
 
 e|-----------11~-7h9-6~-----------------------------|
 B|--------------------------------------------------|
 G|--------------------------------------------------|
 D|--------------------------------------------------|
 A|--------------------------------------------------|
 E|--------------------------------------------------|

[G]And You never chang[D/F]e God You remain
The [Em]Holy One, [D]My unfailing lo[C]ve
Unfailing l[D]ove
 
 e|-----------11~------------------------------------|
 B|--------------------------------------------------|
 G|--------------------------------------------------|
 D|--------------------------------------------------|
 A|--------------------------------------------------|
 E|--------------------------------------------------|

CHORUS
P[G]raise You God of [D/F]Earth and sky
How be[Em]autiful is Y[D]our unfailing l[C]ove
Unfailing l[D]ove
[G]And You never chang[D/F]e God You remain
The [Em]Holy One, [D]My unfailing lo[C]ve
Unfailing l[D]ove unfailing lov[G]e
Unfailing l[D]ove
Adlib
[G] [G] [G] [G]  
 
 e|--------------------------------------------------|
 B|--------------------------------------------------|
 G|-5-5-5--4h5-5-5--4h5-5-5--4h5-5-5-----------------|
 D|--------------------------------------------------|
 A|--------------------------------------------------|
 E|--------------------------------------------------|

Ending
[G]Unfailing l[G]ove [G]Unfailing l[G]ove Your unfailing
 
 e|--------------------------------------------------|
 B|--------------------------------------------------|
 G|--------4h5-5-5--4h5-5-5--4h5-5-5--4h5-5-5--------|
 D|--------------------------------------------------|
 A|--------------------------------------------------|
 E|--------------------------------------------------|

[G] [G] [G] [G]  
My unfailing love How beautiful unfailing love
 
 e|--------------------------------------------------|
 B|--------------------------------------------------|
 G|-----------4h5-5-5--4h5-5-5-----------------------|
 D|--------------------------------------------------|
 A|--------------------------------------------------|
 E|--------------------------------------------------|


Important: The song above is NOT stored on the Chordie server. The original song is hosted at www.guitaretab.com. Chordie works as a search engine and provides on-the-fly formatting. Chordie does not index songs against artists'/composers' will. To remove this song please click here.

Text color:
Chord color:
Chord grids: 
Font size:    
Page size: 

Am C D D/F Em G
Rate #1 of 9 versions

Jango Player

Login - add to songbook

SHARE PAGE  




You need to log in to post comments