Guitar Tabs, Chords and Lyrics
Server problems seems to be fixed. Chordie has been experiencing problems with songs disappearing. These issues now seems to be fixed, but still verifying the fix. If you find anything strange, please email admin@chordie.com.


On Our Side  Chris Tomlin

Capo 1
Verse 1
[A]Everyone around the world, [D]hear the joyful sound
[A]See the heavens open up, hear the m[D]usic comin down
[A]Nothing?s gonna separate us from the F[D]ather's Love
[A]I can?t help but celebrate '[D]cause we're not alone
Chorus
If God is [A]on our side, who can [D]be against us?
If God is on[A] our side, we won't be afr[D]aid
Though the [A]mountains may fall and the [D]sky will crumble
There ain't [A]nothing gonna stand in our w[D]ay
Verse 2
[A]Come on down to the riverside w[D]ash it all away
[A]Leave behind Your troubled mind for an u[D]ncloudy day
[A]Nothing?s gonna separate us [D]from the Father's Love
[A]I can't help but celebrate 'c[D]ause we're not alone
Chorus
Solo (Acoustic and Bass)
A D (4x)
(Electric)
 
 -------------------------------------55-3--3-s-5-------------------------------|
 -------------8---------------------------5---------7-7-5-7---------------------|
 ----5-7-8b---9t-7-5-7-5----------------------------7-7-5-7----------------5----|
 --7----------------------7-5-7-5-7---------------------------7-7-5-7--5-7---7--|
 -------------------------------------------------------------------------------|
 -------------------------------------------------------------------------------|
 ---------------------------------------------------------------------|
 --8-8-8-8-8-8-8-8-10-10-10-10-10-10-10-10-13-13-13-13-13-13-13-13-13-|
 --9-9-9-9-9-9-9-9-11-11-11-11-11-11-11-11-14-14-14-14-14-14-14-12-14-|
 ---------------------------------------------------------------------|
 ---------------------------------------------------------------------|
 ---------------------------------------------------------------------|
 -----------17------17------17------17------17-------------------|
 --16-s-17------17------17------17-------17------17---8-6-5------|
 -----------------------------------------------------------7-6--|
 ----------------------------------------------------------------|
 ----------------------------------------------------------------|
 ----------------------------------------------------------------|

Chorus (2x)

Important: The song above is NOT stored on the Chordie server. The original song is hosted at www.guitaretab.com. Chordie works as a search engine and provides on-the-fly formatting. Chordie does not index songs against artists'/composers' will. To remove this song please click here.

Text color:
Chord color:
Chord grids: 
Font size:    
Page size: 

A D
Rate #2 of 2 versions

Jango Player

Login - add to songbook

SHARE PAGE  




You need to log in to post comments