Guitar Tabs, Chords and Lyrics
Server problems seems to be fixed. Chordie has been experiencing problems with songs disappearing. These issues now seems to be fixed, but still verifying the fix. If you find anything strange, please email admin@chordie.com.


Done and Done  Chuck Ragan

chuck ragan - done and done
standard tuning
Intro: play G with Hammer on and Pull off:
 
 e---3------3------3--------------------------|
 B---3------3------3--------------------------|
 G---4p-----3-----h3--------------------------|
 D---5p-----3-----h5--------------------------|
 A---5p-----3-----h5--------------------------|
 E---3------3------3--------------------------|

Verse:
e-[G]3 [Am] 0 [C]3 [C]3
[B-3] [1] [5] [5]  
[G-4] [2] [5] [5]  
[D-5]A-5 [2]0 [5]3 [5]3
E-3 x x x
Bridge
[G] [D] [Am] [C]  
 
 e-----3------------5-----------5------------3---------|
 B-----3------------7-----------5------------5---------|
 G-----4------------7-----------5------------5---------|
 D-----5------------7-----------7------------5---------|
 A-----5------------5-----------7------------3---------|
 E-----3------------x-----------5------------x---------|

Ref
[G] [D] [Em] [C]  
 
 e-----3------------2-----------0------------0---------|
 B-----0------------3-----------0------------1---------|
 G-----0------------2-----------0------------0---------|
 D-----0------------0-----------2------------2---------|
 A-----2------------0-----------2------------3---------|
 E-----3------------x-----------0------------x---------|

(chords can also be played open, but they won't support rythmic strumming and muting as
as barré chords)
Verse 1
[G]Why do we never know
[Am]Questions come and answers go
[C]Somewhere else besides our head
[C]Wear the stripes until we're dead
[G]And we only want to love
[Am]Spending time here and above
[C]Hopelessly devoted the flesh and blood
Bridge
Until we're done and [G]done
[D] Done and don[Am]e[C] [C]
Verse 2
[G]Wake up now we've got to go
[Am]Somewhere higher's all I know
[C]Leave behind the walking dead
[C]Leave the mess don't make the bed
[G]And we'll ride on like a wave
[Am]Roll and never hesitate
[C]Build momentum and create
[C]Something to say
[C]Something to say
Refrain: Play now open Chords
[G]Oh, let it go
[D]Cut loose and roll
[Em]Rock steady soul
[C]Get up stand up Throw your hands up
[G]Oh, let it go
[D]Cut loose and roll
[Em]Rock steady soul
[C]Get up stand up 'Til you're done and d[G]one
[D] Done and [Am]done[C]
Mix Verse 1 and 2 ;D
Why do we never know
Questions come and answers go
Somewhere else besides our head
Wear the stripes until we're dead
And we'll ride on like a wave
Roll and never hesitate
Build momentum and create
Something to say
Something to say
Ref
Oh, let it go
Cut loose and roll
Rock steady soul
Get up stand up
Throw your hands up
Oh, let it go
Cut loose and roll
Rock steady soul
Get up stand up
[C]Until you're done [G7]and don[G]e
thats it, i hoped you like it, if you have any comments or improvements please dont
and send me a email: damuch@gmail.com
Cheers!

Important: The song above is NOT stored on the Chordie server. The original song is hosted at www.guitaretab.com. Chordie works as a search engine and provides on-the-fly formatting. Chordie does not index songs against artists'/composers' will. To remove this song please click here.

Text color:
Chord color:
Chord grids: 
Font size:    
Page size: 

Am B-3 C D D-5 Em G G-4 G7
Rate #1 of 2 versions

Jango Player

Login - add to songbook

SHARE PAGE  




You need to log in to post comments