Guitar Tabs, Chords and Lyrics
Server problems seems to be fixed. Chordie has been experiencing problems with songs disappearing. These issues now seems to be fixed, but still verifying the fix. If you find anything strange, please email admin@chordie.com.


Alma en tregua  Cielo Razzo

Intro: (Riff 1 x3, Final)
Riff 1:
 
 e|--------------------------|
 B|--------------------------|
 G|-----0-----------------0--| (x3)
 D|-----------------2--4-----|
 A|--2-----0--2--3-----------|
 E|--------------------------|

Final:
 
 e|------------------------------|
 B|------------------------------|
 G|-----0----------------0-------|
 D|-------------------4-----4----|
 A|--2-----0--2--3/5-----------5-|
 E|------------------------------|

Riff 2:
 
 e|-----------------------|-----------------------|
 B|-----------------------|-----------------------|
 G|-----0-----------------|-----0-----------------|
 D|-----------------2--4--|-----------------2--1--|
 A|--2-----0--2--3--------|--2-----0--2--3--------|
 E|-----------------------|-----------------------|

Riff 3:
 
 e|-------------------------|
 B|-------------------------|
 G|--------------0----------|
 D|-----2--4-------------4--|
 A|--3--------2-----2/5-----|
 E|-------------------------|

[Em]Te robo el tiempo [C]hermano,
[Em]hoy vengo a [C]callar con vos. Riff 2
[Em]El cielo guarda [C]siempre,
[Em]un pedazo [C]de este sol. Riff 2
[Em]El río viene c[C]laro,
[Em]y el remanso [C]me aplacó. Riff 2
[Em]No deseo andar [C]hurgando,
[Em]en heridas [C]de años. Riff 2
Estribillo:
[A]Ay, el alma hoy no duele.
Solo 1:
 
 e|-------------------|----------------|--------10--7--7--7--7-------------7---------10/12--12b--|
 B|-------------------|----------------|-10/12------------------10--8--10-----10--8--------------|
 G|-------7-----7--9--|-------9--9--7--|---------------------------------------------------------|
 D|--7-9-----9--------|--9/7-----------|---------------------------------------------------------|
 A|-------------------|----------------|---------------------------------------------------------|
 E|-------------------|----------------|---------------------------------------------------------|

[Em]Los pesares se [C]anestecian
[Em]aprovecho [C]el dia, el rato. Riff 2
[Em]Me arrojo al [C]aire y busco,
[Em]esa grata [C]sensación. Riff 2
[Em]La nena [C]sueña,
[Em]y en sus ojos [C]encuentro la razón. Riff 2
[Em]La charla fl[C]uye,
[Em]y recojo bohemia del [C]salón. Riff 2
[A]Ay, el alma hoy no duele.
[C]Me gusta estar [D]así, tan [Em]tranquilo.
[C]Me gusta andar [D]así.
Solo 2:
e|--|
B|--|
G|--|
D|--|
A|--|
E|--|
[Em]En la casa estan [C]riendo,
[Em]en sus vidas veo mi [C]razón. Riff 3
[Em]Mis hermanos estan b[C]ailando,
[Em]tan profundo en el [C]corazón. Riff 3
Ay, el alma hoy no duele.
[C]Me gusta andar as[D]i, tan tranq[Em]uilo.
[C]Me gusta andar as[D]i, tan tranq[Em]uilo.
[C]Prefiero andar as[D]i, tan tranq[Em]uilo.
[C]Me gusta andar as[D]i, tan..
Ultima Parte:
Riff 2 x4
. . .Logan_RosarioCentral( rc_ivan13@hotmail.com )
. . .Aguante ROSARIO CENTRAL!!!

Important: The song above is NOT stored on the Chordie server. The original song is hosted at www.guitaretab.com. Chordie works as a search engine and provides on-the-fly formatting. Chordie does not index songs against artists'/composers' will. To remove this song please click here.

Text color:
Chord color:
Chord grids: 
Font size:    
Page size: 

A C D Em
Rate #2 of 2 versions

Login - add to songbook

SHARE PAGE  



You need to log in to post comments