Guitar Tabs, Chords and Lyrics
Major upgrade!! After one year development the new version of Chordie is now online! Please give feedback.


Always Getting What You Want  Circa Survive

ALWAYS GETTING WHAT YOU WANT
As recorded by Circa Survive
(From the 2005 Album JUTURNA)
Words and Music by Circa Survive
Arranged by Circa Survive
Transcribed by Cordarro Collins
Gtr I (Eb Ab Db Gb Bb Eb) - 'Untitled'
Gtr II (Eb Ab Db Gb Bb Eb) - 'Untitled'
Gtr III (Eb Ab Db Gb Bb Eb) - 'Untitled'
Gtr IV (Eb Ab Db Gb Bb Eb) - 'Untitled'
Gtr V (Eb Ab Db Gb Bb Eb) - 'Untitled'
Intro
Q=154
N.C.
[3/4] Gtr I
E E E E E E E E E E E E E E E E E E +E E E Q.
 
 |-------------|-------------|-------------|--------------|
 |-------------|-------------|-------------|--------------|
 |-------------|-------------|-------------|--------------|
 |-------0-4---|-------0-4---|-------0-4---|-------2-0----|
 |-----2-------|-----2-------|-----2-------|--------------|
 |-0-0-------0-|-0-0-------0-|-0-0-------0-|-(0)s5--------|

E E E E E E E E E E E E E E E E E E +E E E Q.
 
 |--------------|--------------|--------------|--------------|
 |--------------|--------------|--------------|--------------|
 |--------------|--------------|--------------|--------------|
 |--------0-4---|--------0-4---|--------0-4---|-------2-0----|
 |------2-------|------2-------|------2-------|--------------|
 |-0--0-------0-|-0--0-------0-|-0--0-------0-|-(0)s5--------|

|
| Gtr III
| H. H. H. Q. Q.
 
 |--------------|--------------|--------------|--------------|
 |--------------|--------------|--------------|--------------|
 |--------------|--------------|--------------|--9------7----|
 |--------------|--------------|--------------|--------------|
 |--------------|--------------|--------------|--------------|
 |--------------|--------------|--------------|--------------|

Verse
Bm N.C.
Gtr I
E E E E E E E E E E E E E E E E E E +E E E Q.
 
 |-----------------|-------------------|--------------|--------------|
 |-----------------|-------------------|--------------|--------------|
 |-----------------|-------------------|--------------|--------------|
 |---------0--4----|-----------0--4----|--------0-4---|-------2-0----|
 |------2----------|--------2----------|------2-------|--------------|
 |-0-0-----------0-|--0--0-----------0-|-0--0-------0-|-(0)s5--------|

|
| Gtr III
| >
| Q Q Q Q Q Q H. Q. Q.
 
 |-----------------|-------------------|--------------|--------------|
 |-----------------|-------------------|--------------|--5-----------|
 |-7---(7)---(7)---|-(7)---(7)---(7)---|--------------|--7------6----|
 |-9---(9)---(9)---|-(9)---(9)---(9)---|--------------|--------------|
 |-----------------|-------------------|--------------|--------------|
 |-----------------|-------------------|--------------|--------------|

[E] [E] [E] [E] [E] [E] [E] [E] [E] [E] [E] [E]  
 
 |-----------------|-------------------|
 |-----------------|-------------------|
 |-----------------|-------------------|
 |---------0--4----|-----------0--4----|
 |------2----------|--------2----------|
 |-0-0-----------0-|--0--0-----------0-|

|
| >
| Q Q Q Q Q Q
 
 |-----------------|-------------------|
 |-----------------|-------------------|
 |-----------------|-------------------|
 |-4---(4)---(4)---|-(4)---(4)---(4)---|
 |-----------------|-------------------|
 |-----------------|-------------------|

E E E E E E +E E E Q.
 
 |--------------|------------------------------|
 |--------------|------------------------------|
 |--------------|------------------------------|
 |--------0-4---|-----------2----0-------------|
 |------2-------|------------------------------|
 |-0--0-------0-|-(0)s=5-----------------------|

|
| Gtr IV
| TP TP TP TP TP TP
| H. E E E E E E
 
 |--------------|------------------------------|
 |--------------|--x\-(x)\-(x)\-(x)\-(x)\-(x)\-|
 |--------------|--x\-(x)\-(x)\-(x)\-(x)\-(x)\-|
 |--------------|------------------------------|
 |--------------|------------------------------|
 |--------------|------------------------------|

pickscrape
Bm N.C.
Gtr I
E E Q E E E E E E E E E E E E E E +E E E Q.
 
 |----------------|-------------------|--------------|--------------|
 |----------------|-------------------|--------------|--------------|
 |------2---------|-------------------|--------------|--------------|
 |-----------4----|-----------0--4----|--------0-4---|-------2-0----|
 |----------------|--------2----------|------2-------|--------------|
 |-0-0----------0-|--0--0-----------0-|-0--0-------0-|-(0)s5--------|

|
| Gtr III
| >
| Q Q Q Q Q Q H. Q. Q.
 
 |----------------|-------------------|--------------|--------------|
 |----------------|-------------------|--------------|--5-----------|
 |-7---(7)--(7)---|-(7)---(7)---(7)---|--------------|--7------6----|
 |-9---(9)--(9)---|-(9)---(9)---(9)---|--------------|--------------|
 |----------------|-------------------|--------------|--------------|
 |----------------|-------------------|--------------|--------------|

E E E E E E E E E E Q E E Q E E +E E E Q.
 
 |-----------------|------------------|-------------|-------------------|
 |-----------------|------------------|-------------|-------------------|
 |-----------------|--------------4\--|------2------|-------------------|
 |---------0--4----|-----------0------|---------4---|-----------2--0----|
 |------2----------|--------2---------|-------------|-------------------|
 |-0-0-----------0-|--0--0------------|-0--0------0-|--(0)s5------------|

|
| >
| Q Q Q Q Q Q H. Q H
 
 |-----------------|------------------|-------------|-------------------|
 |-----------------|------------------|-------------|-/19----/(19)------|
 |-----------------|------------------|-------------|-------------------|
 |-4---(4)---(4)---|-(4)---(4)---(4)--|-------------|-------------------|
 |-----------------|------------------|-------------|-------------------|
 |-----------------|------------------|-------------|-------------------|

Bm N.C.
E E E E E E E E E E E E E E Q E E +E E E Q.
 
 |-----------------|-------------------|-------------|--------------|
 |-----------------|-------------------|-------------|--------------|
 |-----------------|-------------------|------2------|--------------|
 |---------0--4----|-----------0--4----|---------4---|-------2-0----|
 |------2----------|--------2----------|-------------|--------------|
 |-0-0-----------0-|--0--0-----------0-|-0--0------0-|-(0)s5--------|

|
| >
| Q Q Q Q Q Q H. Q. Q.
 
 |-----------------|-------------------|-------------|--------------|
 |-----------------|-------------------|-------------|--5-----------|
 |-7---(7)---(7)---|-(7)---(7)---(7)---|-------------|--7------6----|
 |-9---(9)---(9)---|-(9)---(9)---(9)---|-------------|--------------|
 |-----------------|-------------------|-------------|--------------|
 |-----------------|-------------------|-------------|--------------|

[E] [E] [E] [E] [E] [E] [E] [E] [E] [E] [E] [E]  
 
 |-----------------|-------------------|
 |-----------------|-------------------|
 |-----------------|-------------------|
 |---------0--4----|-----------0--4----|
 |------2----------|--------2----------|
 |-0-0-----------0-|--0--0-----------0-|

|
| >
| Q Q Q Q Q Q
 
 |-----------------|-------------------|
 |-----------------|-------------------|
 |-----------------|-------------------|
 |-4---(4)---(4)---|-(4)---(4)---(4)---|
 |-----------------|-------------------|
 |-----------------|-------------------|

E E E E Q E E E Q.
 
 |--------------|-----------------------------|
 |--------------|-----------------------------|
 |----------4\--|-----------------------------|
 |--------0-----|----------2----0-------------|
 |------2-------|-----------------------------|
 |-0--0---------|-0s==5-----------------------|

|
| Gtr IV
| TP TP TP TP TP TP
| H. E E E E E E
 
 |--------------|-----------------------------|
 |--------------|-x\-(x)\-(x)\-(x)\-(x)\-(x)\-|
 |--------------|-x\-(x)\-(x)\-(x)\-(x)\-(x)\-|
 |--------------|-----------------------------|
 |--------------|-----------------------------|
 |--------------|-----------------------------|

pickscrape
Bm N.C.
Gtr I
E E E E E E E E E E E E E E E E E E E E E Q.
 
 |-----------------|-------------------|--------------|------------|
 |-----------------|-------------------|--------------|------------|
 |-----------------|-------------------|--------------|------------|
 |---------0--4----|-----------0--4----|------4-0-4---|-----2-0----|
 |------2----------|--------2----------|--------------|------------|
 |-0-0-----------0-|--0--0-----------0-|-0--0-------0-|-0s5--------|

|
| Gtr III
| >
| Q Q Q Q Q Q H. Q. Q.
 
 |-----------------|-------------------|--------------|------------|
 |-----------------|-------------------|--------------|-5----------|
 |-7---(7)---(7)---|-(7)---(7)---(7)---|--------------|-7-----6----|
 |-9---(9)---(9)---|-(9)---(9)---(9)---|--------------|------------|
 |-----------------|-------------------|--------------|------------|
 |-----------------|-------------------|--------------|------------|

Gtr I
E E E E E E E E Q E E E E E E E E +E E E Q.
 
 |-----------------|------------------|--------------|-------------------|
 |-----------------|------------------|--------------|-------------------|
 |-----------------|--------2---------|--------------|-------------------|
 |---------0--4----|-------------4----|--------0-4---|-----------2--0----|
 |------2----------|------------------|------2-------|-------------------|
 |-0-0-----------0-|--0--0----------0-|-0--0-------0-|--(0)s5------------|

|
| >
| Q Q Q Q Q Q H. Q H
 
 |-----------------|------------------|--------------|-------------------|
 |-----------------|------------------|--------------|-/19----/(19)------|
 |-----------------|------------------|--------------|-------------------|
 |-4---(4)---(4)---|-(4)---(4)--(4)---|--------------|-------------------|
 |-----------------|------------------|--------------|-------------------|
 |-----------------|------------------|--------------|-------------------|

Breakdown
N.C.
+H. +H. +H. E E E E E E
 
 |-------------|----------|----------|--------------|
 |-------------|----------|----------|--------------|
 |-------------|----------|----------|--------7-6---|
 |--(0)--------|-(0)------|-(0)------|------9-----7-|
 |-------------|----------|----------|-7--9---------|
 |-------------|----------|----------|--------------|

|
| +H Q H. H. H.
 
 |-------------|----------|----------|--------------|
 |-(19)\-------|----------|----------|--------------|
 |-------------|----------|----------|--------------|
 |-------------|----------|----------|--------------|
 |-------------|----------|----------|--------------|
 |-------------|----------|----------|--------------|

H. +H. +H. E E E E E E
 
 |---------|----------|----------|---------------|
 |---------|----------|----------|---------------|
 |---------|----------|----------|---------7-6---|
 |---------|----------|----------|-------9-----7-|
 |-9-------|-(9)------|-(9)------|--7--9---------|
 |---------|----------|----------|---------------|

|
| Gtr II
| H. +H. +H. +H.
 
 |---------|----------|----------|---------------|
 |---------|----------|----------|---------------|
 |-7-------|-(7)------|-(7)------|-(7)-----------|
 |---------|----------|----------|---------------|
 |---------|----------|----------|---------------|
 |---------|----------|----------|---------------|

H. H. H. E E E E E E
 
 |---------|-----------|---------|---------------|
 |---------|-----------|---------|---------------|
 |---------|-----------|---------|---------7-6---|
 |---------|-----------|---------|-------9-----7-|
 |-7-------|-/12-------|-9-------|--7--9---------|
 |---------|-----------|---------|---------------|

|
| H. +H. H. +H.
 
 |---------|-----------|---------|---------------|
 |---------|-----------|-7-------|-(7)-----------|
 |-6-------|--(6)------|---------|---------------|
 |---------|-----------|---------|---------------|
 |---------|-----------|---------|---------------|
 |---------|-----------|---------|---------------|

Q. Q. Q. Q. Q. Q. E E E E E E
 
 |------------|-------------|-------------|---------------|
 |------------|-------------|-------------|---------------|
 |------------|-------------|-------------|---------7-6---|
 |------------|-------------|-------------|-------9-----7-|
 |-9----[9]---|--9----[9]---|--9----[9]---|--7--9---------|
 |------------|-------------|-------------|---------------|

|
| H. +H. +H. +H.
 
 |------------|-------------|-------------|---------------|
 |------------|-------------|-------------|---------------|
 |-7----------|-(7)---------|-(7)---------|-(7)-----------|
 |------------|-------------|-------------|---------------|
 |------------|-------------|-------------|---------------|
 |------------|-------------|-------------|---------------|

H. H. H. [A5] Q Q Q
 
 |---------|-----------|----------|------------|
 |---------|-----------|----------|------------|
 |---------|-----------|----------|------------|
 |---------|-----------|----------|------------|
 |-7-------|-/12-------|-14-------|--7---7--7--|
 |---------|-----------|----------|--5---5--5--|

|
| H. +H. H. H.
 
 |---------|-----------|----------|------------|
 |---------|-----------|--7-------|-10---------|
 |-6-------|--(6)------|----------|------------|
 |---------|-----------|----------|------------|
 |---------|-----------|----------|------------|
 |---------|-----------|----------|------------|

Chorus
N.C. A
E Q Q E Q E Q E Q. Q E Q Q Q
 
 |----------------|--------------|-------------|----------|
 |----------------|--------------|-------------|----------|
 |----------------|--------------|-------------|----------|
 |----------------|--------------|-------------|----------|
 |----------------|--------------|-------------|----------|
 |--5s=7--7----7--|---7---7-7--7-|---7----7--7-|-5--5--5--|

|
| >
| ~~~~~~~~~~~~~~~~~~
| E H +E +H. +H. Q Q Q
 
 |----------------|--------------|-------------|----------|
 |-10-12-----(12)-|-(12)---------|-(12)--------|----------|
 |----------------|--------------|-------------|-6--6--6--|
 |----------------|--------------|-------------|-7--7--7--|
 |----------------|--------------|-------------|-7--7--7--|
 |----------------|--------------|-------------|-5--5--5--|

E [Bm]Q Q E Q E Q E Q. Q E [A]H +E +E
 
 |-----------|-----------|-----------|-----------------|
 |-----------|-----------|-----------|-----------------|
 |-----------|-----------|-----------|-----------------|
 |-----------|-----------|-----------|-----------------|
 |-----------|-----------|-----------|-----------------|
 |-5s7--7--7-|-7--7-7--7-|-7----7--7-|-5b7-----(5)-(5)-|

|
| E Q Q E Q E Q E Q. Q E Q Q Q
 
 |-----------|-----------|-----------|-----------------|
 |-----------|-----------|-----------|-----------------|
 |-6-7--7--7-|-7--7-7--7-|-7----7--7-|-6----6---6------|
 |-7-9--9--9-|-9--9-9--9-|-9----9--9-|-7----7---7------|
 |-7-9--9--9-|-9--9-9--9-|-9----9--9-|-7----7---7------|
 |-5-7--7--7-|-7--7-7--7-|-7----7--7-|-5----5---5------|

N.C.
[E] [E] [E] [E] [E] [E] [E] [E] [E] [E] [E] [E]  
 
 |-------------------|-------------------|
 |-------------------|-------------------|
 |-------------------|-------------------|
 |-----------0--4----|-----------0--4----|
 |--------2----------|--------2----------|
 |--0--0-----------0-|--0--0-----------0-|

|
| E E E E E E E E E E E E
 
 |-------------------|-------------------|
 |-------------------|-------------------|
 |----18-------19----|----18-------19----|
 |-16----16-16----16-|-16----16-16----16-|
 |-------------------|-------------------|
 |-------------------|-------------------|

E E E E E E Q Q Q
 
 |-------------------|-------------------|
 |-------------------|-------------------|
 |-------------------|-------------------|
 |-----------0--4----|-------------------|
 |--------2----------|--7-----7-----7----|
 |--0--0-----------0-|--5-----5-----5----|

|
| E E E E E E E E E E E E
 
 |-------------------|-------------------|
 |-------------------|-------------------|
 |----18-------19----|-16-18-16-14-16-14-|
 |-16----16-16----16-|-------------------|
 |-------------------|-------------------|
 |-------------------|-------------------|

[E] [E] [E] [E] [E] [E] [E] [E] [E] [E] [E] [E]  
 
 |-------------------|-------------------|
 |-------------------|-------------------|
 |-------------------|-------------------|
 |-----------0--4----|-----------0--4----|
 |--------2----------|--------2----------|
 |--0--0-----------0-|--0--0-----------0-|

|
| E E E E E E E E E E E E
 
 |-------------------|-------------------|
 |-------------------|-------------------|
 |----18-------19----|----18-------19----|
 |-16----16-16----16-|-16----16-16----16-|
 |-------------------|-------------------|
 |-------------------|-------------------|

E E E E E E [A5] Q Q Q
 
 |-------------------|-------------------|
 |-------------------|-------------------|
 |-------------------|-------------------|
 |-----------0--4----|-------------------|
 |--------2----------|--7-----7-----7----|
 |--0--0-----------0-|--5-----5-----5----|

|
| E E E E E E E E E E E E
 
 |-------------------|-------------------|
 |-------------------|-------------------|
 |----18-------19----|-16-18-16-14-16-14-|
 |-16----16-16----16-|-------------------|
 |-------------------|-------------------|
 |-------------------|-------------------|

Verse
N.C.
E E E E E E E E E E E E E E E E E E +E E E Q.
 
 |------------------|----------------|----------------|---------------|
 |------------------|----------------|----------------|---------------|
 |------------------|----------------|----------------|---------------|
 |---------0-4------|----------0-4---|----------0-4---|--------2-0----|
 |-------2----------|--------2-------|--------2-------|---------------|
 |--0--0---------0--|---0--0-------0-|---0--0-------0-|--(0)s5--------|

|
| >
| ~~~~~~~~~~~~~~~~~~~~~~~~~~~~~~~~~~~~~~~~~~~~~~~~~~~~~~~
| E H +E +H. +H. +H.
 
 |------------------|----------------|----------------|---------------|
 |------------------|----------------|----------------|---------------|
 |-14s16-------(16)-|-(16)-----------|-(16)-----------|-(16)----------|
 |------------------|----------------|----------------|---------------|
 |------------------|----------------|----------------|---------------|
 |------------------|----------------|----------------|---------------|

E E E E E E E E Q E E E E E E Q E E E Q.
 
 |--------------|-------------|--------------|------------|
 |--------------|-------------|--------------|------------|
 |--------------|------2------|----------4\--|------------|
 |--------0-4---|---------4---|--------0-----|-----2-0----|
 |------2-------|-------------|------2-------|------------|
 |-0--0-------0-|-0--0------0-|-0--0---------|-0s5--------|

|
| E H E H. H. H.
 
 |--------------|-------------|--------------|------------|
 |--------------|-------------|--------------|------------|
 |--------------|-------------|--------------|------------|
 |-x\-----------|-------------|--------------|------------|
 |-x\-----------|-------------|--------------|------------|
 |-x\-----------|-------------|--------------|------------|

E E E E E E E E Q E E E E E E E E +E E E Q.
 
 |--------------|--------------|--------------|-------------------|
 |--------------|--------------|--------------|-------------------|
 |--------------|-----2--------|--------------|-------------------|
 |-------0--4---|----------4---|-------0--4---|---------2-0-------|
 |-----2--------|--------------|-----2--------|-------------------|
 |-0-0--------0-|-0-0--------0-|-0-0--------0-|-(0)s=5------------|

|
 
 | PM-----------------------------------------------------------|

| E E E E E E E E E E E E E E E E E E E E E E E E
 
 |--------------|--------------|--------------|-------------------|
 |--------------|--------------|--------------|-------------------|
 |--------------|-7-6----------|--------------|-11-----11---------|
 |-7-9-7-9-11---|-------9-11-9-|-7-9-7-9-11---|-----11----9--11-9-|
 |------------9-|-----9--------|------------9-|-------------------|
 |--------------|--------------|--------------|-------------------|

E E E E E E E E E E Q E E Q E E [A5] H.
 
 |--------------|---------------|--------------|----------------------------|
 |--------------|---------------|--------------|----------------------------|
 |--------------|----------4\---|-----2--------|----------------------------|
 |-------0--4---|-------0-------|----------4---|--7-------------------------|
 |-----2--------|-----2---------|--------------|--7-------------------------|
 |-0-0--------0-|-0-0-----------|-0-0--------0-|--5-------------------------|

|
| >
 
 | PM------------------------------------------------------------------|

| E E E E E E E E E E E E E E E E E E E E E E E E
 
 |--------------|---------------|--------------|----------------------------|
 |--------------|---------------|--------------|----------------------------|
 |--------------|-7-6-----------|--------------|-11-----(11)------(11)------|
 |-7-9-7-9-11---|-------9-11--9-|-7-9-7-9-11---|-----11------(11)------(11)-|
 |------------9-|-----9---------|------------9-|----------------------------|
 |--------------|---------------|--------------|----------------------------|

N.C.
E E E E E E E Q E Q E Q Q. E Q Q.
 
 |--------------|--------------|---------------|----------5-------|
 |--------------|-------3------|---------------|------------------|
 |--------------|-2--------4---|-4s2---2-------|--2s=4------------|
 |-------0--4---|---4----------|---------------|------------------|
 |-----2--------|--------------|---------------|------------------|
 |-0-0--------0-|--------------|---------------|------------------|

|
 
 | PM-----------------------------------------------------------|

| E E E E E E E E E E E E E E E E E E E E E E E E
 
 |--------------|--------------|---------------|------------------|
 |--------------|--------------|---------------|------------------|
 |--------------|-7-6----------|---------------|-11----11---------|
 |-7-9-7-9-11---|-------9-11-9-|-7-9-7-9--11---|----11----9--11-9-|
 |------------9-|-----9--------|-------------9-|------------------|
 |--------------|--------------|---------------|------------------|

E Q Q. E E E E E E E E E E E E S S E E E E E
 
 |---------------|-2---2----3---|-2---2----2---|---------------|
 |---------------|--------------|--------------|-3h5p3-3-2-----|
 |-------2-------|--------------|--------------|-----------2-4-|
 |-2-4-----------|---4---4----4-|---4---4----4-|---------------|
 |---------------|--------------|--------------|---------------|
 |---------------|--------------|--------------|---------------|

|
 
 | PM----------------------------------------|

| E E E E E E E E E E E E E E E E E E E E E E Q
 
 |---------------|--------------|--------------|---------------|
 |---------------|--------------|--------------|---------------|
 |---------------|-7-6----------|--------------|-7---6---------|
 |-7-9-7-9--11---|-------9-11-9-|-7-9-7-9-11---|-------7-7s9---|
 |-------------9-|-----9--------|------------9-|---------------|
 |---------------|--------------|--------------|---------------|

[E] [E] [E] [E] [E] [E] [E] [E] [E] [E] [E] [E]  
 
 |-------------------|--------------------|
 |-------------------|--------------------|
 |-11-11-11-11-11-11-|-/16-16-16-16-16-16-|
 |--x--x--x--x--x--x-|---x--x--x--x--x--x-|
 |--9--9--9--9--9--9-|-/14-14-14-14-14-14-|
 |-------------------|--------------------|

|
| E E E E E E E E E E E E
 
 |-------------------|--------------------|
 |-------------------|--------------------|
 |-14-14-14-14-14-14-|--13-13-13-13-13-13-|
 |--x--x--x--x--x--x-|---x--x--x--x--x--x-|
 |-12-12-12-12-12-12-|--11-11-11-11-11-11-|
 |-------------------|--------------------|

[E] [E] [E] [E] [E] [E] [E] [E] [E] [E] [E] [E]  
 
 |--------------------|-------------------|
 |--------------------|-------------------|
 |--19-19-19-19-19-19-|-14-14-14-14-14-14-|
 |---x--x--x--x--x--x-|--x--x--x--x--x--x-|
 |--17-17-17-17-17-17-|-12-12-12-12-12-12-|
 |--------------------|-------------------|

|
| E E E E E E E E E E E E
 
 |--------------------|-------------------|
 |--------------------|-------------------|
 |-/16-16-16-16-16-16-|-18-18-18-18-18-18-|
 |---x--x--x--x--x--x-|--x--x--x--x--x--x-|
 |-/14-14-14-14-14-14-|-16-16-16-16-16-16-|
 |--------------------|-------------------|

E E E E E E E E E E E E E E E E E E [A5]Q Q Q
 
 |--------------------|--------------------|-------------------|----------|
 |--------------------|--------------------|-------------------|----------|
 |-/16-16-16-16-16-16-|---9--9--9--9--9--9-|-11-11-11-11-11-11-|----------|
 |---x--x--x--x--x--x-|---x--x--x--x--x--x-|--x--x--x--x--x--x-|-7--7--7--|
 |-/14-14-14-14-14-14-|---7--7--7--7--7--7-|--9--9--9--9--9--9-|-7--7--7--|
 |--------------------|--------------------|-------------------|-5--5--5--|

|
| E E E E E E E E E E E E E E E E E E Q Q Q
 
 |--------------------|--------------------|-------------------|----------|
 |--------------------|--------------------|-------------------|----------|
 |--------------------|--------------------|-------------------|----------|
 |--------------------|--------------------|-------------------|-7--7--7--|
 |---9--9--9--9--9--9-|-/12-12-12-12-12-12-|-11-11-11-11-11-11-|-7--7--7--|
 |--------------------|--------------------|-------------------|-5--5--5--|

Chorus
[A]E [Bm]Q Q E Q E Q E Q. Q E [A]Q Q Q
 
 |-----------|-----------|-----------|----------|
 |-----------|-----------|-----------|----------|
 |-----------|-----------|-----------|-6--6--6--|
 |-----------|-----------|-----------|-7--7--7--|
 |-----------|-----------|-----------|-7--7--7--|
 |-5s7--7--7-|-7--7-7--7-|-7----7--7-|-5--5--5--|

|
| E Q Q E Q E Q E Q. Q E Q Q Q
 
 |-----------|-----------|-----------|----------|
 |-----------|-----------|-----------|----------|
 |-----------|-----------|-----------|----------|
 |-----------|-----------|-----------|----------|
 |-4-5--5--5-|-5--5-5--5-|-5----5--5-|-4--4--4--|
 |-5-7--7--7-|-7--7-7--7-|-7----7--7-|-5--5--5--|

E [Bm]Q Q E Q E Q E Q. Q E [A]Q Q Q
 
 |-----------|-----------|-----------|----------|
 |-----------|-----------|-----------|----------|
 |-----------|-----------|-----------|-6--6--6--|
 |-----------|-----------|-----------|-7--7--7--|
 |-----------|-----------|-----------|-7--7--7--|
 |-5s7--7--7-|-7--7-7--7-|-7----7--7-|-5--5--5--|

|
| E Q Q E Q E Q E Q. Q E Q Q Q
 
 |-----------|-----------|-----------|----------|
 |-----------|-----------|-----------|----------|
 |-----------|-----------|-----------|----------|
 |-----------|-----------|-----------|----------|
 |-4-5--5--5-|-5--5-5--5-|-5----5--5-|-4--4--4--|
 |-5-7--7--7-|-7--7-7--7-|-7----7--7-|-5--5--5--|

N.C.
E Q Q E E +E +E +Q S S
 
 |-------------------|-----------------------------|
 |-------------------|-----------------------------|
 |-------------------|--9b11==(9)-(9)-(9)r-----9p7h|
 |-------------------|-----------------------------|
 |-------------------|-----------------------------|
 |--5s=7-----7-----7-|-----------------------------|

|
| E E E E E E E E E E E E
 
 |-------------------|-----------------------------|
 |-------------------|-----------------------------|
 |----18-------19----|--------18-----------19------|
 |-16----16-16----16-|-16---------16--16------16---|
 |-------------------|-----------------------------|
 |-------------------|-----------------------------|

E H +E E E +E Q.
 
 |--------------------|-----------10\-------|
 |--------------------|---------------------|
 |--9-----------------|-----7-(7)-----------|
 |-----9----------(9)-|--9------------------|
 |--------------------|---------------------|
 |--------------------|---------------------|

|
| E E E E E E E E E E E E
 
 |--------------------|---------------------|
 |--------------------|---------------------|
 |----18-------19-----|-16-18-16--14--16-14-|
 |-16----16-16----16--|---------------------|
 |--------------------|---------------------|
 |--------------------|---------------------|

~~~
Q. Q E E Q E Q H.
 
 |--------------------|-------------------|--------------------|
 |--------------------|----------12-------|-10-----------------|
 |------------4-----4s|=11-11-------11----|--9-----------------|
 |--4-----------------|-------------------|--------------------|
 |--------------------|-------------------|--------------------|
 |--------------------|-------------------|--------------------|

|
| E E E E E E E E E E E E E E E E E E
 
 |--------------------|-------------------|--------------------|
 |--------------------|-------------------|--------------------|
 |-----18-------19----|----18-------19----|-----18-------19----|
 |-16-----16-16----16-|-16----16-16----16-|-16-----16-16----16-|
 |--------------------|-------------------|--------------------|
 |--------------------|-------------------|--------------------|

Gtr V
TP TP TP TP TP TP TP TP TP TP TP TP
S S S S S S S S S S S S
 
 |-------------------------------------------|
 |-------------------------------------------|
 |--x\-x\--x\-x\--x\-x\--x\-x\--x\-x\--x\-x\-|
 |--x\-x\--x\-x\--x\-x\--x\-x\--x\-x\--x\-x\-|
 |-------------------------------------------|
 |-------------------------------------------|

| pickscrape
| E E E E E E
 
 |-------------------------------------------|
 |-------------------------------------------|
 |-16-----18-----16-----14-----16-----14-----|
 |-------------------------------------------|
 |-------------------------------------------|
 |-------------------------------------------|

[G5]Gtr I[A5]
Q. Q E Q E Q E Q. Q E Q Q Q
 
 |----------------|--------------|-------------|-------------|
 |----------------|--------------|-------------|-------------|
 |----------------|--------------|-------------|-------------|
 |--5-----5----5--|---5---5-5--5-|---5----5--5-|---7---7--7--|
 |--5-----5----5--|---5---5-5--5-|---5----5--5-|---7---7--7--|
 |--3-----3----3--|---3---3-3--3-|---3----3--3-|---5---5--5--|

|
| >
| ~~~~~~~~~~~~~~~~~~~~~~~~~~~~~~~~~~~~~~~~~~~~~~~
| E H +E +H. +H. +H.
 
 |----------------|--------------|-------------|-------------|
 |----------------|--------------|-------------|-------------|
 |-14s16-----(16)-|-(16)---------|-(16)--------|-(16)--------|
 |----------------|--------------|-------------|-------------|
 |----------------|--------------|-------------|-------------|
 |----------------|--------------|-------------|-------------|

[G5]Q. Q E Q E Q E Q. Q E [A5]Q Q Q
 
 |-----------|-----------|-----------|----------|
 |-----------|-----------|-----------|----------|
 |-----------|-----------|-----------|----------|
 |-5----5--5-|-5--5-5--5-|-5----5--5-|-7--7--7--|
 |-5----5--5-|-5--5-5--5-|-5----5--5-|-7--7--7--|
 |-3----3--3-|-3--3-3--3-|-3----3--3-|-5--5--5--|

|
| Q. Q E Q E Q E Q. Q E Q Q Q
 
 |-----------|-----------|-----------|----------|
 |-----------|-----------|-----------|----------|
 |-----------|-----------|-----------|----------|
 |-5----5--5-|-5--5-5--5-|-5----5--5-|-7--7--7--|
 |-5----5--5-|-5--5-5--5-|-5----5--5-|-7--7--7--|
 |-3----3--3-|-3--3-3--3-|-3----3--3-|-5--5--5--|

Interlude
[B5] [C#5] [D5]~~~~~~~~~~~~~~~[E5]~~~~~~~~~~~~~~~
E E E E E E E E E E E E H. +H +Q
 
 |--------------|-------------|--------------|-----------------|
 |-----10---8-7-|---8---------|--------------|-----------------|
 |-9-7----------|-----6-7-9-7-|--------------|-----------------|
 |--------9-----|-7-----------|--------------|-----------------|
 |--------------|-------------|-9------------|-(9)-------(9)/--|
 |--------------|-------------|--------------|-----------------|

|
| E E E E E E E E E E E E E E E E E E E E E E Q
 
 |--------------|-------------|--------------|-----------------|
 |--------------|-------------|--------------|-----------------|
 |-4-4--x-4-4-x-|-6-6-x-6-6-x-|-7--7-x-7-7-x-|--9--9-x-9--9\---|
 |-4-4--x-4-4-x-|-6-6-x-6-6-x-|-7--7-x-7-7-x-|--9--9-x-9--9\---|
 |-2-2--x-2-2-x-|-4-4-x-4-4-x-|-5--5-x-5-5-x-|--7--7-x-7--7\---|
 |--------------|-------------|--------------|-----------------|

[B5] [C#5] [D5]~~~~~~~~~~~~~~~~[E5]~~~~~~~~~
E E E E E E E E E E E E Q. Q. Q. Q E
 
 |--------------|-------------|---------------|---------------|
 |-----10---8-7-|---8---------|---------------|-------------7-|
 |-9-7----------|-----6-7-9-7-|---------------|---------------|
 |--------9-----|-7-----------|---------------|---------------|
 |--------------|-------------|-9------9------|-7------7------|
 |--------------|-------------|---------------|---------------|

|
| E E E E E E E E E E E E E E E E E E E E E E Q
 
 |--------------|-------------|---------------|---------------|
 |--------------|-------------|---------------|---------------|
 |-4-4--x-4-4-x-|-6-6-x-6-6-x-|-7--7-x-7--7-x-|-9--9-x-9-9\---|
 |-4-4--x-4-4-x-|-6-6-x-6-6-x-|-7--7-x-7--7-x-|-9--9-x-9-9\---|
 |-2-2--x-2-2-x-|-4-4-x-4-4-x-|-5--5-x-5--5-x-|-7--7-x-7-7\---|
 |--------------|-------------|---------------|---------------|

[B5]E Q Q E [C#5]Q E Q E [D5]Q E Q E [E5]Q. E E E
 
 |-7-----------|-------------|-------------|--------2-3--2-|
 |---7---------|-----8-----5-|-7-----5-----|---------------|
 |-------7---9-|-6-----6-----|-----7-----6-|-4-------------|
 |-------------|-------------|-------------|---------------|
 |-------------|-------------|-------------|---------------|
 |-------------|-------------|-------------|---------------|

|
| E E E E E E E E E E E E E E E E E E E E E E Q
 
 |-------------|-------------|-------------|---------------|
 |-------------|-------------|-------------|---------------|
 |-4-4-x-4-4-x-|-6-6-x-6-6-x-|-7-7-x-7-7-x-|-9--9-x-9-9\---|
 |-4-4-x-4-4-x-|-6-6-x-6-6-x-|-7-7-x-7-7-x-|-9--9-x-9-9\---|
 |-2-2-x-2-2-x-|-4-4-x-4-4-x-|-5-5-x-5-5-x-|-7--7-x-7-7\---|
 |-------------|-------------|-------------|---------------|

[B5]E Q Q E [C#5]Q. Q. [D5]E +E E +E E +E [A]Q Q Q Q Q Q
 
 |-7-----------|---------------|-------------------------|----------|----------|
 |---7---------|--------7------|-------------------------|----------|----------|
 |-------7---9-|-6-------------|-6b7r(6)-6b7r(6)-6b7r(6)-|----------|----------|
 |-------------|---------------|-------------------------|----------|----------|
 |-------------|---------------|-------------------------|-4--4--4--|-4--4--4--|
 |-------------|---------------|-------------------------|-5--5--5--|-5--5--5--|

|
| E E E E E E E E E E E E E E E E E E Q Q Q Q Q Q
 
 |-------------|---------------|-------------------------|----------|----------|
 |-------------|---------------|-------------------------|----------|----------|
 |-4-4-x-4-4-x-|-6--6-x-6--6-x-|-7----7--x----7--7----x--|----------|----------|
 |-4-4-x-4-4-x-|-6--6-x-6--6-x-|-7----7--x----7--7----x--|----------|----------|
 |-2-2-x-2-2-x-|-4--4-x-4--4-x-|-5----5--x----5--5----x--|-4--4--4--|-4--4--4--|
 |-------------|---------------|-------------------------|-5--5--5--|-5--5--5--|

Out-Chorus
E [Bm]Q Q E Q E Q E Q. Q E [A]Q Q Q
 
 ||------------|-----------|-----------|-----------||
 ||o-----------|-----------|-----------|----------o||
 ||--6-7--7--7-|-7--7-7--7-|-7----7--7-|-6--6--6---||
 ||--7-9--9--9-|-9--9-9--9-|-9----9--9-|-7--7--7---||
 ||o-7-9--9--9-|-9--9-9--9-|-9----9--9-|-7--7--7--o||
 ||--5-7--7--7-|-7--7-7--7-|-7----7--7-|-5--5--5---||

|
| E Q Q E Q E Q E Q. Q E Q Q Q
 
 ||------------|-----------|-----------|-----------||
 ||o-----------|-----------|-----------|----------o||
 ||------------|-----------|-----------|-----------||
 ||------------|-----------|-----------|-----------||
 ||o-4-5--5--5-|-5--5-5--5-|-5----5--5-|-4--4--4--o||
 ||--5-7--7--7-|-7--7-7--7-|-7----7--7-|-5--5--5---||

E [Bm] Q Q E Q E Q E
 
 |-------------------|-------------------|
 |-------------------|-------------------|
 |--6--7-----7-----7-|--7-----7--7-----7-|
 |--7--9-----9-----9-|--9-----9--9-----9-|
 |--7--9-----9-----9-|--9-----9--9-----9-|
 |--5--7-----7-----7-|--7-----7--7-----7-|

|
| E E E E E E E E E E E E
 
 |-------------------|-------------------|
 |-------------------|-------------------|
 |----18-------19----|----18-------19----|
 |-16----16-16----16-|-16----16-16----16-|
 |-------------------|-------------------|
 |-------------------|-------------------|

Q. Q E [A] Q Q Q
 
 |--------------------|-------------------|
 |--------------------|-------------------|
 |--7---------7-----7-|--6-----6-----6----|
 |--9---------9-----9-|--7-----7-----7----|
 |--9---------9-----9-|--7-----7-----7----|
 |--7---------7-----7-|--5-----5-----5----|

|
| E E E E E E E E E E E E
 
 |--------------------|-------------------|
 |--------------------|-------------------|
 |-----18-------19----|-16-18-16-14-16-14-|
 |-16-----16-16----16-|-------------------|
 |--------------------|-------------------|
 |--------------------|-------------------|

E [Bm] Q Q E Q E Q E
 
 |-------------------|-------------------|
 |-------------------|-------------------|
 |--6--7-----7-----7-|--7-----7--7-----7-|
 |--7--9-----9-----9-|--9-----9--9-----9-|
 |--7--9-----9-----9-|--9-----9--9-----9-|
 |--5--7-----7-----7-|--7-----7--7-----7-|

|
| E E E E E E E E E E E E
 
 |-------------------|-------------------|
 |-------------------|-------------------|
 |----18-------19----|----18-------19----|
 |-16----16-16----16-|-16----16-16----16-|
 |-------------------|-------------------|
 |-------------------|-------------------|

Q. Q E [A] Q Q Q
 
 |--------------------|-------------------|
 |--------------------|-------------------|
 |--7---------7-----7-|--6-----6-----6----|
 |--9---------9-----9-|--7-----7-----7----|
 |--9---------9-----9-|--7-----7-----7----|
 |--7---------7-----7-|--5-----5-----5----|

|
| E E E E E E E E E E E E
 
 |--------------------|-------------------|
 |--------------------|-------------------|
 |-----18-------19----|-16-18-16-14-16-14-|
 |-16-----16-16----16-|-------------------|
 |--------------------|-------------------|
 |--------------------|-------------------|

G N.C. A
Q. E +E +E +Q Q Q E H +E Q Q Q
 
 |----------------------|-------------|---------------|-------------------|
 |----------------------|-------------|---------------|-------------------|
 |--4-----4b5==(4)--(4)r|==(4)--------|---------------|--6-----6-----6----|
 |--5-------------------|-------4--4--|---4--5----(5)-|--7-----7-----7----|
 |--5-------------------|-------------|---------------|--7-----7-----7----|
 |--3-------------------|-------------|---------------|--5-----5-----5----|

|
| >
| E H +E +H. +H. E E E E E E
 
 |----------------------|-------------|---------------|-------------------|
 |----------------------|-------------|---------------|-------------------|
 |-14s16-----------(16)-|-(16)--------|-(16)----------|-16-18-16-14-16-14-|
 |----------------------|-------------|---------------|-------------------|
 |----------------------|-------------|---------------|-------------------|
 |----------------------|-------------|---------------|-------------------|

G N.C. A
Q. E +E +E +Q Q Q E H +E Q Q Q
 
 |--------------------|-------------|---------------|-------------------|
 |--------------------|-------------|---------------|-------------------|
 |--4----4b5==(4)-(4)r|==(4)--------|---------------|--6-----6-----6----|
 |--5-----------------|-------4--4--|---4--5----(5)-|--7-----7-----7----|
 |--5-----------------|-------------|---------------|--7-----7-----7----|
 |--3-----------------|-------------|---------------|--5-----5-----5----|

|
| ~~~~
| H. +H. H. E E E E E E
 
 |--------------------|-------------|---------------|-------------------|
 |--------------------|-------------|---------------|-------------------|
 |-19-----------------|-(19)--------|---------------|-16-18-16-14-16-14-|
 |--x-----------------|--(x)--------|---------------|-------------------|
 |-17-----------------|-(17)--------|-/19-----------|-------------------|
 |--------------------|-------------|---------------|-------------------|

E [Bm] Q Q E Q E Q E
 
 |-------------------|-------------------|
 |-------------------|-------------------|
 |--6--7-----7-----7-|--7-----7--7-----7-|
 |--7--9-----9-----9-|--9-----9--9-----9-|
 |--7--9-----9-----9-|--9-----9--9-----9-|
 |--5--7-----7-----7-|--7-----7--7-----7-|

|
| E E E E E E E E E E E E
 
 |-------------------|-------------------|
 |-------------------|-------------------|
 |----18-------19----|----18-------19----|
 |-16----16-16----16-|-16----16-16----16-|
 |-------------------|-------------------|
 |-------------------|-------------------|

Q. Q E [A] Q Q Q
 
 |--------------------|-------------------|
 |--------------------|-------------------|
 |--7---------7-----7-|--6-----6-----6----|
 |--9---------9-----9-|--7-----7-----7----|
 |--9---------9-----9-|--7-----7-----7----|
 |--7---------7-----7-|--5-----5-----5----|

|
| E E E E E E E E E E E E
 
 |--------------------|-------------------|
 |--------------------|-------------------|
 |-----18-------19----|-16-18-16-14-16-14-|
 |-16-----16-16----16-|-------------------|
 |--------------------|-------------------|
 |--------------------|-------------------|

E [Bm] Q Q E Q E Q E
 
 |-------------------|-------------------|
 |-------------------|-------------------|
 |--6--7-----7-----7-|--7-----7--7-----7-|
 |--7--9-----9-----9-|--9-----9--9-----9-|
 |--7--9-----9-----9-|--9-----9--9-----9-|
 |--5--7-----7-----7-|--7-----7--7-----7-|

|
| E E E E E E E E E E E E
 
 |-------------------|-------------------|
 |-------------------|-------------------|
 |----18-------19----|----18-------19----|
 |-16----16-16----16-|-16----16-16----16-|
 |-------------------|-------------------|
 |-------------------|-------------------|

Q. Q E H +E +E
 
 |--------------------|-----------------------|
 |--------------------|-----------------------|
 |--7---------7-----7-|-----------------------|
 |--9---------9-----9-|-----------------------|
 |--9---------9-----9-|-----------------------|
 |--7---------7-----7-|--5b7----------(5)-(5)-|

|
| E E E E E E E E E E E E
 
 |--------------------|-----------------------|
 |--------------------|-----------------------|
 |-----18-------19----|-16---18-16-14-16--14--|
 |-16-----16-16----16-|-----------------------|
 |--------------------|-----------------------|
 |--------------------|-----------------------|

N.C.
[E] [E] [E] [E] [E] [E] [E] [E] [E] [E] [E] [E]  
 
 ||--------------------|-------------------|
 ||o-------------------|-------------------|
 ||--------------------|-------------------|
 ||------------0--4----|-----------0--4----|
 ||o--------2----------|--------2----------|
 ||---0--0-----------0-|--0--0-----------0-|

|
| E E E E E E E E E E E E
 
 ||--------------------|-------------------|
 ||o-------------------|-------------------|
 ||-----18-------19----|----18-------19----|
 ||--16----16-16----16-|-16----16-16----16-|
 ||o-------------------|-------------------|
 ||--------------------|-------------------|

E E E E E E [A] Q Q Q
 
 |-------------------|--------------------||
 |-------------------|-------------------o||
 |-------------------|--6-----6-----6-----||
 |-----------0--4----|--7-----7-----7-----||
 |--------2----------|--7-----7-----7----o||
 |--0--0-----------0-|--5-----5-----5-----||

|
| E E E E E E E E E E E E
 
 |-------------------|--------------------||
 |-------------------|-------------------o||
 |----18-------19----|-16-18-16-14-16-14--||
 |-16----16-16----16-|--------------------||
 |-------------------|-------------------o||
 |-------------------|--------------------||

[G5] >
H. +H. +H. +H.
 
 |---------------|-----------|-----------|---------*|
 |---------------|-----------|-----------|---------*|
 |---------------|-----------|-----------|---------*|
 |--5------------|--(5)------|--(5)------|--(5)----*|
 |--5------------|--(5)------|--(5)------|--(5)----*|
 |--3------------|--(3)------|--(3)------


Important: The song above is NOT stored on the Chordie server. The original song is hosted at www.guitaretab.com. Chordie works as a search engine and provides on-the-fly formatting. Chordie does not index songs against artists'/composers' will. To remove this song please click here.

Text color:
Chord color:
Chord grids: 
Font size:    
Page size: 

A A5 B5 Bm C#5 D5 E E5 G5
Rate #1 of 2 versions

Login - add to songbook

SHARE PAGE  




You need to log in to post comments