Guitar Tabs, Chords and Lyrics
Major upgrade!! After one year development the new version of Chordie is now online! Please give feedback.


Hello, Iâ??m in Delaware   City and Colour

 
 e:----3-------3------------------------------3-----3----------|
 B:----3-------3--------7/8 7-----------------3-----3----------|
 G:----0-------0--------------7/9-7-----------0-----0----------|
 D:----2-------2--------------------7/9-7-----2-----2----------|
 A:----2-------3------------------------------0-----3----------|
 E:----0-------------------------------------------------------|

 


 


 Verse:


 


 So there goes my life......


 

 
 e:----3-------3------------------------------3-----3----------|-------------|
 B:----3-------3--------7/8 7-----------------3-----3----------|-------------|
 G:----0-------0--------------7/9-7-----------0-----0----------|-------------|
 D:----2-------2--------------------7/9-7-----2-----2----------|-- play x2 --|
 A:----2-------3------------------------------0-----3----------|-------------|
 E:----0-------0-----------------------------------------------|-------------|

 


 


 No sleep tonight....


 

 
 e:----3-------3------3-----3----------|---------------|
 B:----3-------3------3-----3----------|---------------|
 G:----0-------0------0-----0----------|---------------|
 D:----2-------2------2-----2----------|-- play twice -|
 A:----2-------3------0-----3----------|---------------|
 E:----0-------------------------------|---------------|

 


 


 


 Pre-chorus:


 

 
 e:----3--------------------------------3--------------------------------3--|
 B:----3------------------0-------------3-----------------0--------------3--|
 G:----0----------0--0h2----------------0---------0--0h2-----------------0--|
 D:----0--------------------------------2--------------------------------2--|
 A:----2-----------------------5h3/2----0----0h3---------------5h3/2-----3--|
 E:----3----3/5-------------------------------------------------------------|

 


 


 


 Chorus:


 


 But I will see you again... I will...


 

 
 e:----3-------3-----------------3----------------------|
 B:----3-------3-----------------3----------------------|
 G:----0-------0-----------------0----------------------|
 D:----0-------2-----------------2----------------------|
 A:----2-------0-----------------3----------------------|
 E:----3------------------------------------------------|

 


 


 A long... time... from now...


 

 
 e:----3-------3-----------------3----------------------|
 B:----3-------3-----------------3----------------------|
 G:----0-------0-----------------0----------------------|
 D:----0-------2-----------------2----------------------|
 A:----2-------0-----------------3----------------------|
 E:----3------------------------------------------------|

 


 


 


 Bridge:


 


 My body aches...


 

 
 e:----3-------3--------3--------3-----------|----------------|
 B:----3-------3--------3--------3-----------|----------------|
 G:----0-------0--------0--------0-----------|----------------|
 D:----0-------2--------2--------2-----------|-- play twice --|
 A:----2-------3--------0--------3-----------|----------------|
 E:------------------------------------------|----------------|


Important: The song above is NOT stored on the Chordie server. The original song is hosted at www.guitaretab.com. Chordie works as a search engine and provides on-the-fly formatting. Chordie does not index songs against artists'/composers' will. To remove this song please click here.

This song is displayed as text-only. Transposing and tuning is only available for chordpro-songs.
Rate #2 of 4 versions

Login - add to songbook

SHARE PAGE  




You need to log in to post comments