Guitar Tabs, Chords and Lyrics
Server problems seems to be fixed. Chordie has been experiencing problems with songs disappearing. These issues now seems to be fixed, but still verifying the fix. If you find anything strange, please email admin@chordie.com.


Rebel Waltz  The Clash

Rebel Waltz by The Clash
 
 e|---------------------------------------------|
 B|-------------5454545---54545-----------------|
 G|-------54545-----------------54545-5-4-2-5---|
 D|-54545---------------------------------------|
 A|---------------------------------------------|
 E|---------------------------------------------|
 e|-----------------------32323-2-----32323-2-----32323-2---------------|
 B|-------------5454545-----------3-----------3-----------3-------------|
 G|-------54545---------------------4-----------4-----------4-----------|
 D|-54545-----------------------------------------------------------5---|
 A|---------------------------------------------------------------5-----|
 E|-----------------------------------------------------------3-7-------|
 e|----------------------------------------------|
 B|-------------545454545454545454/8-------------|
 G|-------54545------------------------5-4-2-5---|
 D|-54545----------------------------------------|
 A|----------------------------------------------|
 E|----------------------------------------------|
 e|-----------------------32323-2-----32323-2-----32323-2---------------|
 B|-------------5454545-----------3-----------3-----------3-------------|
 G|-------545-----------------------4-----------4-----------4-----------|
 D|-545-------------------------------------------------------------5---|
 A|---------------------------------------------------------------5-----|
 E|-----------------------------------------------------------3-7-------|
 e|---------------------32323-----------------|
 B|---------------4-5---------54545-----------|
 G|-----------5-4-------------------54544h2---|
 D|-5----5------------------------------------|
 A|--5----3-----------------------------------|
 E|-------------------------------------------|
 e|-----------------------32323/7------32323/7------32323-2---------------|
 B|-------------5454545-------------------------------------3-------------|
 G|-------54545-----------------------------------------------4-----------|
 D|-54545-------------------------------------------------------------5---|
 A|-----------------------------------------------------------------5-----|
 E|-------------------------------------------------------------3-7-------|

repeat
I [G]slept as I [C]dreamed of a [B]time long a-[Em]go.
I saw an [B]army of [Em]rebels [C]dancing on [Am]air.
I [G]dreamed as I [C]slept. I could [B]see the camp fires,
[Em]A song of the [Bm]battle that was [Em]born in the [Bm]flames,
And the [Em]rebels were [Bm]waltzing on [G]air
I [G]danced with a [C]girl to the [B]tune of a [Em]waltz
That was [B]written to be [Em]danced on [C]the battle-[Am]field
[G]I danced to the s[C]ong of a voice[B] of a girl
[Em]A voice tha[Bm]t called,[Em] 'Stand till w[Bm]e fall.
We [Em]stand till [Bm]all the boys [G]fall.'
As we [G]danced came the [C]news that the [B]war was not [Em]won
Five [B]armies were [Em]coming with [C]carriage and [Am]gun.
Through the [G]heart of the [C]camp swept the [B]news from the front.
A [Em]cloud crossed the [Bm]moon. A [Em]child cried for [Bm]food.
We [Em]knew the war [Bm]could not be [G]won.
So we [G]danced with a [C]rifle to the [Bm]rhythm of the [Em]gun.
In a [Bm]glade, through the [Em]trees, I saw [C]my only [Am]one.
Then the [G]earth seemed to [C]rise, hell [B]hot as the sun.
The [Em]soldiers were [Bm]dying. There was a [Em]tune to the [Bm]sighing.
The [Em]song was an [Bm]old rebel [G]one.
G c B Em
As the smoke of our hopes rose high from the field,
My [B]eyes played [Em]tricks through the [C]moon and the [Am]trees.
I [G]slept as I [C]dreamed I [B]saw the army rise.
A [Em]voice began to [Bm]call, [Em]Stand till you [Bm]fall
The [Em]tune was an [Bm]old rebel [G]one.
Enjoy!!

Important: The song above is NOT stored on the Chordie server. The original song is hosted at www.guitaretab.com. Chordie works as a search engine and provides on-the-fly formatting. Chordie does not index songs against artists'/composers' will. To remove this song please click here.

Text color:
Chord color:
Chord grids: 
Font size:    
Page size: 

Am B Bm C Em G
Rate #1 of 5 versions

Jango Player

Login - add to songbook

SHARE PAGE  



You need to log in to post comments