Guitar Tabs, Chords and Lyrics
Major upgrade!! After one year development the new version of Chordie is now online! Please give feedback.


Gravel Road  Clutch

 
 -------------------------------------------------------------------------------

Gravel Road - Clutch
 
 -------------------------------------------------------------------------------

2.03.08
Tabbed by: Tyler Eibl
Email: Tyler420@gmail.com
I only tabbed the electric guitar parts and the solo not the slide guitar parts.
Tuning: Drop D DADGBe
Intro/Verse
 
 e|--------------------|
 B|o-------------------|
 G|--------------------|
 D|----5---3---0-------|
 A|o---5---3---0-------|
 D|----5---3---0-------|

"And I ain't stoppin'.."
 
 e|-----------------------------------|
 B|o----------------------------------|
 G|-----------------------------------|
 D|----7-----3-3-0-------3-3-0--------|
 A|o---5-----3-3-0-0-----3-3-0--------|
 D|----0-----3-3-0-0-----3-3-0--------| x2

"That girl im lovin'."
 
 e|----------------------------------------|
 B|o---------------------------------------|
 G|----------------------------------------|
 D|------------------3b--------------------|
 A|o----3h5-5-3-5--3----5---3h5-5-3-5------|
 D|----------------------------------------|x2
 e|--------------------------------------------|
 B|o-------------------------------------------|
 G|--------------------------------------------|
 D|------------------3b------------------------|
 A|o----3h5-5-3-5--3----5---3h5-5-3-5---3-3-5--|
 D|--------------------------------------------|

Solo[D]
 
 e|-----------------------------------------------------------------|---|
 B|o----------------------------------------------------------------|---|
 G|--------5-5-5--------------------2----5-5-5----------------------|-5-|
 D|--------0-0-0------5p3p0-3p0-3h5------0-0-0-----5p3p0-3p0-3h5-0--|-0-|
 A|o-------0-0-0-------------------------0-0-0----------------------|-0-|
 D|-----0-----------0------------------0---------0------------------|---|
 e|-----------------------------------------------|
 B|o--12br-12-10--12-12-10~---12br-12-10-12-------|
 G|---12br-12-10--12-12-10~---12br-12-10-12-------|
 D|-----------------------------------------12~---|
 A|o----------------------------------------------|
 D|-----------------------------------------------|
 e|------------------------------------------------------------------------------|
 B|o-----------------------------------------------------------------------------|
 G|---10h12p10h12p10h12----------------------------------------------------------|
 D|---------------------10h12p10h12p10h12----------------------------------------|
 A|o--------------------------------------10h12p10h12p10h12--8h10p8h10p8h10------|
 D|--------------------------------------------------------------------------12~-|

[C2]  
 
 e|--------------------------------------------------------------------|
 B|o-------------------------------------------------------------------|
 G|---------------------------12/13\12-10-------10---------------------|
 D|---------------------10h12-------------12-10----12-10--------10-10~-|
 A|o---------8h10-11-12----------------------------------12--12--------|
 D|----10h12-----------------------------------------------------------|
 e|----------------------------------------|
 B|o---------------------------------------|
 G|----------------------------------------|
 D|----10h12-10----------------------------|
 A|o-------------12-10\8-10-8-10/12--------|
 D|---------------------------------12~----|


Important: The song above is NOT stored on the Chordie server. The original song is hosted at www.guitaretab.com. Chordie works as a search engine and provides on-the-fly formatting. Chordie does not index songs against artists'/composers' will. To remove this song please click here.

Text color:
Chord color:
Chord grids: 
Font size:    
Page size: 

C2 D
Rate #1 of 2 versions

Jango Player

Login - add to songbook

SHARE PAGE  




You need to log in to post comments