Guitar Tabs, Chords and Lyrics
Major upgrade!! After one year development the new version of Chordie is now online! Please give feedback.


A Favor House Atlantic  Coheed and Cambria

 
 -----------------------------------------------------------------------------

A FAVOR HOUSE ATLANTIC (ACOUSTIC) - Coheed and Cambria
 
 -----------------------------------------------------------------------------

Tabbed by: MountainDre
Note: This is my very first tab/chords contribution but I believe it is very
accurate. Feel free to send me any feedback. I am a huge Coheed fan and
decided tab this one out since there doesn't seem to be any complete and
accurate transcription available. Sounds great on the acoustic guitar. Enjoy!
Tuning: standard
Intro:
 
 e|--0---0-0---0-0-0--------------------|
 B|--0---0-0---0-0-0--------------------|
 G|--6---6-6---6-6-6---4-6--------------|
 D|--6---6-6---6-6-6-------4---4--------|
 A|--4---4-4---4-4-0-------------7-6-4--|
 E|-------------------------------------|

Fill:
 
 e|--0---0-0---0-0-0---0-0-0---0-0-0----|
 B|--0---0-0---0-0-0---0-0-0---0-0-0----|
 G|--6---6-6---6-6-6---6-6-4---4-2-2----|
 D|--6---6-6---6-6-6---6-6-4---4-2-2----|
 A|--4---4-4---4-4-0---0-0-0---0-0-0----|
 E|-------------------------------------|

(Intro x3)
[Asus2] Your eyes tell the s[B5]tories of a [C#5]day you wish you c[Asus2]ould
Recall the m[B5]oments that o[C#5]nce h[Asus2]ave
Retract the f[B5]ootsteps that b[C#5]rought us to this f[Asus2]avor
I wouldn't [B5]ask this of [C#5]you
[Asus2]Good eye, sniper, here [Asus2]I'll shoot, you run[E]
Chorus:
[(E)] The w[A]ords you [C#5]scribbled [B5]on the w[E]alls
With the l[A]oss of f[C#5]riends you d[B5]idn't have[E]
I'll c[A]all you [C#5]when the t[B5]ime is right
[Asus2] Are you in or are you out?
[Asus2] For them all to know the end of us all
(Fill x3)
[Asus2] Run quick, they're beh[B5]ind us didn't [C#5]think we'd ever [Asus2]make it
This close to [B5]safety in [C#5]one p[Asus2]iece
Now you wanna [B5]kill me in the [C#5]act of what could [Asus2]maybe
Save us from [B5]sleep and what we [C#5]are
[Asus2]Good eye, sniper, here [Asus2]I'll shoot, you run[E]
(Chorus)
[E] Bye bye [Asus2]beautiful
[E] Don't bother to [Asus2]write
[F#] Disturbed by your words and they're [Asus2]calling all cars
[Asus2]Face step, let down. [Asus2]Face step, step down.
(Chorus)
(Repeat "Bye bye beautiful" part x2)
 
 -----------------------------------------------------------------------------

Chords used:
Asus2: x02200
B5: x24400 (during chorus: 799xxx)
C#5: x46600 (during chorus: 9-11-11-xxx)
E: 022100
A: 5776xx
F#: 2443xx

Important: The song above is NOT stored on the Chordie server. The original song is hosted at www.guitaretab.com. Chordie works as a search engine and provides on-the-fly formatting. Chordie does not index songs against artists'/composers' will. To remove this song please click here.

Text color:
Chord color:
Chord grids: 
Font size:    
Page size: 

A Asus2 B5 C#5 E F#
Rate #2 of 14 versions

Login - add to songbook

SHARE PAGE  



You need to log in to post comments