Guitar Tabs, Chords and Lyrics
Major upgrade!! After one year development the new version of Chordie is now online! Please give feedback.


The Hard Sell   Coheed and Cambria

 
 |-------------------------------------|
 |-------------------------------------|
 |-------------------------------------|
 |--7~--7-x--7-5~--7-x------------3~~--|
 |--5~--5-x--5-3~--5-x--5-5-5-3-0------|
 |-------------------------------------|
 |-----------------------------------|
 |-----------------------------------|
 |-----------------------------------|
 |--7~--7-x--7-5~--7-x--x-x-x--------|
 |--5~--5-x--5-3~--5-x--x-x-x--------|
 |----------------------x-x-X--7v~~--|
 |-----------------------------------|
 |-----------------------------------|
 |----------------------x-x-x--------|
 |----------------------x-x-x--------|
 |------8-x--8-----8-x--x-x-x-1p0----|
 |--8~--8-x--8-7~--8-x------------3--|
 |-----------------------------------|
 |-----------------------------------|
 |----------------------x-x-x--------|
 |----------------------x-x-x--------|
 |--5~--5-x--5-----5-x--x-x-x--------|
 |--5~--5-x--5-3~--5-x---------3v~~--|

 


 


 ========================================


 Verse 1:


 


 Guitar 1 & 2:


 


 

 
 |-------------------------------------|
 |-------------------------------------|
 |-------------------------------------|
 |--7-7-7-7--x-7-5~--7-x------------3--|
 |--5-5-5-5--x-5-3~--5-x--5-5-5-3-0----|
 |-------------------------------------|

 


 PM * * *


 


 

 
 |------------------------|
 |------------------------|
 |------------------------|
 |--7-7-7-7--x-7-5~--7-x--|
 |--5-5-5-5--x-5-3~--5-x--|
 |------------------------|
 |--------------------------------------|
 |--------------------------------------|
 |------------------------x-x-x---------|
 |------------------------x-x-x---------|
 |--8-8-8-8--x-8-8~--8-x--x-x-x--1p0----|
 |--8-8-8-8--x-8-7~--8-x-------------3--|
 |-----------------------------------|
 |-----------------------------------|
 |------------------------x-x-x------|
 |------------------------x-x-x------|
 |--5-5-5-5--x-5-3~--5-x--x-x-x--3~--|
 |--5-5-5-5--x-5-3~--5-x---------3~--|

 


 


 Guitar 2:


 


 [starting on 2nd time of above riff]:


 (the lead goes something like this,


 just play around with it...)


 

 
 |---------------------------------------------|
 |--10~~~---10~--8~--10~---11~-10~-------------|
 |----------------------------------10-12------|
 |----------------------------------------10~--|
 |---------------------------------------------|
 |---------------------------------------------|

 


 


 [starting on 3rd time]:


 


 

 
 |-----------------------------------|
 |-----------------------------------|
 |------------5-2-------------2------|
 |--------3-5-----5-3-----3-5---3-5--|
 |--0-3-5-------------3-5------------|
 |-----------------------------------|

 


 PM * * * * *


 


 

 
 |-----------------------------------|
 |-----------------------------------|
 |-----------------------------------|
 |----------------3v*~~-------3------|
 |--5-5-5-5-0-3-5-------0-3-5---3-5--|
 |-----------------------------------|

 


 PM * * * * *


 

 
 |-5555-xx-5-5-xxx-5~-5555-xx-5-5-xxx-5--|
 |-6666-xx-6-6-xxx-6~-6666-xx-6-6-xxx-6--|
 |-7777-xx-7-7-xxx-7~-7777-xx-7-7-xxx-7--|
 |---------------------------------------|
 |---------------------------------------|
 |---------------------------------------|

 


 


 ========================================


 Refrain:


 


 Guitar 1:


 

 
 |--------------------------|
 |--------------------------|
 |--------------------------|

 


 |-33333333333-55555555555--|


 |-11111111111-33333333333--|


 

 
 |--------------------------|

 


 


 Guitar 2:


 

 
 |--------------------|-----------------|
 |--------------------|-----------------|
 |--5--7--------------|-----------------|
 |--------5--8--7-----|--5-----3--------|
 |-----------------8--|-----5-----3--5--|
 |--------------------|-----------------|
 |--------------------|-----------------|
 |--------------------|-----------------|
 |--------------------|-----------------|
 |--------2-----2-----|-----------------|
 |--3--5-----3-----3--|--5--3--5~~~~~~--|
 |--------------------|-----------------|

 


 


 ========================================


 Chorus:


 


 Guitar 1:


 

 
 |--------------------|------------------|
 |--------------------|------------------|
 |--------------------|------------------|
 |--------------------|------------------|
 |--0000--0000--0--0--|--0000--0000--00--|
 |--0000--0000--0--0--|--0000--0000--00--|

 


 PM **** **** * * **** **** **


 


 

 
 |--------------------|----------------------------|
 |--------------------|----------------------------|
 |--------------------|----------------------------|
 |--3333333333333333--|--333333333x----------------|
 |--1111111111111111--|--111111111x-----0-1-0------|
 |--------------------|-------------3-5-------3-5--|

 


 


 Guitar 2:


 

 
 |--------------------|------------------|
 |--------------------|------------------|
 |--------------------|------------------|
 |--------------------|------------------|
 |--0000--0000--0--0--|--0000--0000--00--|
 |--0000--0000--0--0--|--0000--0000--00--|

 


 PM **** **** * * **** **** **


 


 

 
 |--------------------------------|---------------------------------|
 |--------------------------------|---------------------------------|
 |----------0---------------------|---------------------------------|
 |----2---3-------2----3----0-----|--2---------0--------------------|
 |--1---1-------1----1----1----1--|-----1-3--1---x-x-----0-1-0------|
 |--------------------------------|------------------3-5-------3-5--|

 


 PM * * * * * * * *


 


 [Repeat] 


 


 ========================================


 Interlude:


 


 Guitar 2:


 

 
 |-----------------------------|
 |-----------------------------|
 |-----5p0------5-2------------|
 |--x------0h5------5-3-0-3-5--|
 |-----------------------------|
 |-----------------------------|
 |---------------------------------|
 |---------------------------------|
 |---------------------------------|
 |----------------3---------3------|
 |--5-5-5-5-5-3-5-----0-3-5---5-3--|
 |---------------------------------|

 


 PM * * * * *


 


 ========================================


 Verse 2:


 


 [Just Verse 1, with some tiny minor


 modifications to the riffs, nothing


 that you guys can't figure out. :)]


 


 ========================================


 Solo:


 


 [Oh, shoot. The rhythm track!


 I'll add 'em up later! :)]


 


 

 
 |-------------------------------------|
 |-13^15~~~--13^15^15^15^15r13---------|
 |-----------------------------10-12^--|
 |-------------------------------------|
 |-------------------------------------|
 |-------------------------------------|
 |------------------------------------|
 |-----------------10------10---------|
 |--10-12-x--------10-10~--10-x--10\--|
 |-----------10-12----12~-----x--12\--|
 |------------------------------------|
 |------------------------------------|
 |---------------------------|
 |---------------------------|
 |-=10--x--------------------|
 |-=12--x---------------3----|
 |--------------3---5--------|
 |---------------------------|
 |------------------------------------|
 |------------------------------------|
 |----------------------------10--12--|
 |-------3-------------10/12----------|
 |--5~-------5~~----------------------|
 |------------------------------------|
 |-----------------------------------|
 |-----------------------------------|
 |--12^14---12--10--12---------7^----|
 |---------------------12~-----------|
 |-----------------------------------|
 |-----------------------------------|
 |-------------------------------------|
 |-------------------------------------|
 |--7p5h7p5---7------------------------|
 |----------------5--3~~-----3---5-3~--|
 |------------------------5------------|
 |-------------------------------------|
 |--------------------------|
 |---------12-10-----13-15--|
 |---------12-10------------|
 |--==3\--------------------|
 |--------------------------|
 |--------------------------|
 |--12-13-15-15^v^-----12--13---|--12^~~~---|
 |------------------------------|-----------|
 |------------------------------|-----------|
 |------------------------------|-----------|
 |------------------------------|-----------|
 |------------------------------|-----------|

 


 


 ========================================


 Bridge:


 


 

 
 |---------------------------------------|
 |---------------------------------------|
 |---------------------------------------|
 |--10-x-10101010-x-8-10-x-8-x-10-x-8-x--|
 |--10-x-10101010-x-8-10-x-8-x-10-x-8-x--|
 |--10-x-10101010-x-8-10-x-8-x-10-x-8-x--|
 |---------------------------------------|
 |---------------------------------------|
 |---------------------------------------|
 |--10-x-10101010-x-8-10-x-8-x-10-x-8-x--|
 |--10-x-10101010-x-8-10-x-8-x-10-x-8-x--|
 |--10-x-10101010-x-8-10-x-8-x-10-x-8-x--|
 |--------------------------------|
 |--------------------------------|
 |--------------------------------|
 |--8-x-8888-x-7-8-x-7-x-8-x-7-x--|
 |--8-x-8888-x-7-8-x-7-x-8-x-7-x--|
 |--8-x-8888-x-7-8-x-7-x-8-x-7-x--|
 |--------------------------------|
 |--------------------------------|
 |--------------------------------|
 |--8-x-8888-x-7-8-x-7-x-8-x-7-x--|
 |--8-x-8888-x-7-8-x-7-x-8-x-7-x--|
 |--8-x-8888-x-7-8-x-7-x-8-x-7-x--|


Important: The song above is NOT stored on the Chordie server. The original song is hosted at www.guitaretab.com. Chordie works as a search engine and provides on-the-fly formatting. Chordie does not index songs against artists'/composers' will. To remove this song please click here.

This song is displayed as text-only. Transposing and tuning is only available for chordpro-songs.
Rate #0 of 2 versions

Jango Player

Login - add to songbook

SHARE PAGE  



You need to log in to post comments