Guitar Tabs, Chords and Lyrics
Major upgrade!! After one year development the new version of Chordie is now online! Please give feedback.


The Crowing  Coheed and Cambria

As recorded by Coheed and Cambria
(From the 2003 Album IN KEEPING SECRETS OF SILENT EARTH: 3)
Words by Claudio Sanchez
Music by Transcribed by Nero15 + sprinklerthief
Gtr I (E A D G B E) - 'dist.'
Gtr II (E A D G B E) - 'dist.'
Gtr III (E A D G B E) - 'clean'
Gtr IV (E A D G B E) - 'dist'
Gtr V (E A D G B E) - 'w/reverb and talk box'
Intro
Moderately Q.=58
6[Em]/8[Esus2]
Gtr II
S S S S S S S S S S S S S S S S S S S S S S S S
 
 |-------------------------|-------------------------|
 |-------------------------|-------------------------|
 |-------------------------|-------------------------|
 |-5-5---5-5---5-5---5-5---|-4-4---4-4---4-4---4-4---|
 |-7-7---7-7---7-7---7-7---|-7-7---7-7---7-7---7-7---|
 |-------------------------|-------------------------|

|
| Gtr I
| S S S S S S S S S S S S S S S S S S S S S S S S
 
 |-------------------------|-------------------------|
 |-------------------------|-------------------------|
 |-------------------------|-------------------------|
 |-5-5---5-5---5-5---5-5---|-4-4---4-4---4-4---4-4---|
 |-7-7---7-7---7-7---7-7---|-7-7---7-7---7-7---7-7---|
 |-------------------------|-------------------------|

D C5 N.C.
S S S S S S S S S S S S S S S S S S S S S S S S
 
 |-------------------------|-------------------------|
 |-------------------------|-------------------------|
 |-------------------------|-------------------------|
 |-4-4---4-4---4-4---4-4---|-5-5---5-5---------------|
 |-5-5---5-5---5-5---5-5---|-3-3---3-3---3-2-0-----5-|
 |-------------------------|-------------------3-0---|

|
| S S S S S S S S S S S S S S S S S S S S S S S S
 
 |-------------------------|-------------------------|
 |-------------------------|-------------------------|
 |-------------------------|-------------------------|
 |-4-4---4-4---4-4---4-4---|-5-5---5-5---------------|
 |-5-5---5-5---5-5---5-5---|-3-3---3-3-0-3-2-0-----5-|
 |-------------------------|-------------------3-0---|

[Em]Gtr III[Esus2]
S S S S S S S S S S S S S S S S S S S S S S S S
 
 |-------------------------|---------------------------------|
 |-7-7---7-7---7-7---7-7---|-10-10---10-10---10-10---10-10---|
 |-7-7---7-7---7-7---7-7---|--7--7----7--7----7--7----7--7---|
 |-9-9---9-9---9-9---9-9---|--9--9----9--9----9--9----9--9---|
 |-------------------------|---------------------------------|
 |-------------------------|---------------------------------|

|
| Gtr II
| S S S S S S S S S S S S S S S S S S S S S S S S
 
 |-------------------------|---------------------------------|
 |-------------------------|---------------------------------|
 |-------------------------|---------------------------------|
 |-5-5---5-5---5-5---5-5---|--4--4----4--4----4--4----4--4---|
 |-7-7---7-7---7-7---7-7---|--7--7----7--7----7--7----7--7---|
 |-------------------------|---------------------------------|

|
| Gtr I
| S S S S S S S S S S S S S S S S S S S S S S S S
 
 |-------------------------|---------------------------------|
 |-------------------------|---------------------------------|
 |-------------------------|---------------------------------|
 |-5-5---5-5---5-5---5-5---|--4--4----4--4----4--4----4--4---|
 |-7-7---7-7---7-7---7-7---|--7--7----7--7----7--7----7--7---|
 |-------------------------|---------------------------------|

D C5 N.C.
S S S S S S S S S S S S S S S S S S Q.
 
 |-------------------------|--------------------------||
 |-7-7---7-7---7-7---7-7---|-8-8---8-8----------------||
 |-7-7---7-7---7-7---7-7---|-7-7---7-7----------------||
 |-9-9---9-9---9-9---9-9---|-9-9---9-9----------------||
 |-------------------------|--------------------------||
 |-------------------------|--------------------------||

|
 
 | PM-----------|

| S S S S S S S S S S S S S S S S S S S S S S S S
 
 |-------------------------|--------------------------||
 |-------------------------|--------------------------||
 |-------------------------|--------------------------||
 |-4-4---4-4---4-4---4-4---|-5-5---5-5----------------||
 |-5-5---5-5---5-5---5-5---|-3-3---3-3-0-3--2-0-----5-||
 |-------------------------|--------------------3-0---||

|
| S S S S S S S S S S S S S S S S S S S S S S S S
 
 |-------------------------|--------------------------||
 |-------------------------|--------------------------||
 |-------------------------|--------------------------||
 |-4-4---4-4---4-4---4-4---|-5-5---5-5----------------||
 |-5-5---5-5---5-5---5-5---|-3-3---3-3-0-3--2-0-----5-||
 |-------------------------|--------------------3-0---||

1st Verse
[Em]S S S S S S S S S S S S [Esus2] S S S S S S S S S S S S
 
 ||--------------------------|---------------------------------|
 ||o-7-7---7-7---7-7---7-7---|-10-10---10-10---10-10---10-10---|
 ||--7-7---7-7---7-7---7-7---|--7--7----7--7----7--7----7--7---|
 ||--9-9---9-9---9-9---9-9---|--9--9----9--9----9--9----9--9---|
 ||o-------------------------|---------------------------------|
 ||--------------------------|---------------------------------|

|
| S S S S S S S S S S S S S S S S S S S S S S S S
 
 ||--------------------------|---------------------------------|
 ||o-------------------------|---------------------------------|
 ||--------------------------|---------------------------------|
 ||--5-5---5-5---5-5---5-5---|--4--4----4--4----4--4----4--4---|
 ||o-7-7---7-7---7-7---7-7---|--7--7----7--7----7--7----7--7---|
 ||--------------------------|---------------------------------|

|
| S S S S S S S S S S S S S S S S S S S S S S S S
 
 ||--------------------------|---------------------------------|
 ||o-------------------------|---------------------------------|
 ||--------------------------|---------------------------------|
 ||--5-5---5-5---5-5---5-5---|--4--4----4--4----4--4----4--4---|
 ||o-7-7---7-7---7-7---7-7---|--7--7----7--7----7--7----7--7---|
 ||--------------------------|---------------------------------|

D C5 N.C.
S S S S S S S S S S S S S S S S S S Q. 4x
 
 |-------------------------|---------------------------||
 |-7-7---7-7---7-7---7-7---|-8-8---8-8----------------o||
 |-7-7---7-7---7-7---7-7---|-7-7---7-7-----------------||
 |-9-9---9-9---9-9---9-9---|-9-9---9-9-----------------||
 |-------------------------|--------------------------o||
 |-------------------------|---------------------------||

|
 
 | PM-----------|

| S S S S S S S S S S S S S S S S S S S S S S S S 4x
 
 |-------------------------|---------------------------||
 |-------------------------|--------------------------o||
 |-------------------------|---------------------------||
 |-4-4---4-4---4-4---4-4---|-5-5---5-5-----------------||
 |-5-5---5-5---5-5---5-5---|-3-3---3-3-0-3--2-0-----5-o||
 |-------------------------|--------------------3-0----||

|
| S S S S S S S S S S S S S S S S S S S S S S S S 4x
 
 |-------------------------|---------------------------||
 |-------------------------|--------------------------o||
 |-------------------------|---------------------------||
 |-4-4---4-4---4-4---4-4---|-5-5---5-5-----------------||
 |-5-5---5-5---5-5---5-5---|-3-3---3-3-0-3--2-0-----5-o||
 |-------------------------|--------------------3-0----||

Chorus
$
(Emadd2) N.C.
[4/4] W W
 
 |----------------|----------------|
 |----------------|----------------|
 |----------------|----------------|
 |----------------|----------------|
 |----------------|----------------|
 |----------------|----------------|

|
| Gtrs I, II
| E. E. E H E. E. E Q Q
 
 |----------------|----------------|
 |----------------|----------------|
 |----------0-----|---------0------|
 |--------4-------|-------4--------|
 |-(2)-2----------|----2-------5---|
 |--0-------------|-0--------------|

[(C5)]Gtr IV
S S S S S S E H S S S S S S E H
 
 |-----3h5p3--------------------|-----3h5p3---------------------|
 |-3h5-------5p3-/5-------------|-3h5-------5p3-/5--------------|
 |------------------------------|-------------------------------|
 |------------------------------|-------------------------------|
 |------------------------------|-------------------------------|
 |------------------------------|-------------------------------|

|
| E. E. E E +S +E. E E. E. E E +S +E. E
 
 |------------------------------|-------------------------------|
 |------------------------------|-------------------------------|
 |-------------0--4-(4)b5r(4)p0-|-------------0--4-(4)b5r(4)p0--|
 |-------5----------------------|-------5-----------------------|
 |-3----------------------------|-3-----------------------------|
 |------------------------------|-------------------------------|

To Coda
(Emadd2) N.C.
E S S S S S S S S S S S S S S E S S S S S S S S S S S S E
 
 |-----7p0----10p0---12p0--------0-7p0-|-----7p0----10p0---12p0--------0-----|
 |-/8-------8------8------8h10p8-------|-/8-------8------8------8h10p8---10\-|
 |-------------------------------------|-------------------------------------|
 |-------------------------------------|-------------------------------------|
 |-------------------------------------|-------------------------------------|
 |-------------------------------------|-------------------------------------|

|
| E. E. E H E. E. E Q Q
 
 |-------------------------------------|-------------------------------------|
 |-------------------------------------|-------------------------------------|
 |--------------------0----------------|--------------------0----------------|
 |---------------4---------------------|---------------4---------------------|
 |-------2-----------------------------|-------2---------------------5-------|
 |--0----------------------------------|--0----------------------------------|

[(C5)]S S S S S S E H S S S S S S E H
 
 |-----3h5p3--------------------|-----3h5p3----------------------||
 |-3h5-------5p3-/5-------------|-3h5-------5p3-/5---------------||
 |------------------------------|--------------------------------||
 |------------------------------|--------------------------------||
 |------------------------------|--------------------------------||
 |------------------------------|--------------------------------||

|
| E. E. E E +S +E. E E. E. E E +E +E E
 
 |------------------------------|--------------------------------||
 |------------------------------|------------------------------0-||
 |-------------0--4-(4)b5r(4)p0-|-------------0--4b5==(4)-(4)rp0-||
 |-------5----------------------|-------5------------------------||
 |-3----------------------------|-3------------------------------||
 |------------------------------|--------------------------------||

2nd Verse
6[Em]/8[Esus2]
Gtr II
S S S S S S S S S S S S S S S S S S S S S S S S
 
 |-------------------------|-------------------------|
 |-------------------------|-------------------------|
 |-------------------------|-------------------------|
 |-5-5---5-5---5-5---5-5---|-4-4---4-4---4-4---4-4---|
 |-7-7---7-7---7-7---7-7---|-7-7---7-7---7-7---7-7---|
 |-------------------------|-------------------------|

|
| Gtr I
| S S S S S S S S S S S S S S S S S S S S S S S S
 
 |-------------------------|-------------------------|
 |-------------------------|-------------------------|
 |-------------------------|-------------------------|
 |-5-5---5-5---5-5---5-5---|-4-4---4-4---4-4---4-4---|
 |-7-7---7-7---7-7---7-7---|-7-7---7-7---7-7---7-7---|
 |-------------------------|-------------------------|

D C5 N.C.
 
 PM----------|

S S S S S S S S S S S S S S S S S S S S S S S S
 
 |-------------------------|-------------------------|
 |-------------------------|-------------------------|
 |-------------------------|-------------------------|
 |-4-4---4-4---4-4---4-4---|-5-5---5-5---------------|
 |-5-5---5-5---5-5---5-5---|-3-3---3-3-0-3-2-0-----5-|
 |-------------------------|-------------------3-0---|

|
| S S S S S S S S S S S S S S S S S S S S S S S S
 
 |-------------------------|-------------------------|
 |-------------------------|-------------------------|
 |-------------------------|-------------------------|
 |-4-4---4-4---4-4---4-4---|-5-5---5-5---------------|
 |-5-5---5-5---5-5---5-5---|-3-3---3-3-0-3-2-0-----5-|
 |-------------------------|-------------------3-0---|

[Em]Gtr III[Esus2]
S S S S S S S S S S S S S S S S S S S S S S S S
 
 ||--------------------------|---------------------------------|
 ||o-7-7---7-7---7-7---7-7---|-10-10---10-10---10-10---10-10---|
 ||--7-7---7-7---7-7---7-7---|--7--7----7--7----7--7----7--7---|
 ||--9-9---9-9---9-9---9-9---|--9--9----9--9----9--9----9--9---|
 ||o-------------------------|---------------------------------|
 ||--------------------------|---------------------------------|

|
| Gtr II
| S S S S S S S S S S S S S S S S S S S S S S S S
 
 ||--------------------------|---------------------------------|
 ||o-------------------------|---------------------------------|
 ||--------------------------|---------------------------------|
 ||--5-5---5-5---5-5---5-5---|--4--4----4--4----4--4----4--4---|
 ||o-7-7---7-7---7-7---7-7---|--7--7----7--7----7--7----7--7---|
 ||--------------------------|---------------------------------|

|
| Gtr I
| S S S S S S S S S S S S S S S S S S S S S S S S
 
 ||--------------------------|---------------------------------|
 ||o-------------------------|---------------------------------|
 ||--------------------------|---------------------------------|
 ||--5-5---5-5---5-5---5-5---|--4--4----4--4----4--4----4--4---|
 ||o-7-7---7-7---7-7---7-7---|--7--7----7--7----7--7----7--7---|
 ||--------------------------|---------------------------------|

D.S. al Coda
D C5 N.C.
S S S S S S S S S S S S S S S S S S Q. 3x
 
 |-------------------------|---------------------------||
 |-7-7---7-7---7-7---7-7---|-8-8---8-8----------------o||
 |-7-7---7-7---7-7---7-7---|-7-7---7-7-----------------||
 |-9-9---9-9---9-9---9-9---|-9-9---9-9-----------------||
 |-------------------------|--------------------------o||
 |-------------------------|---------------------------||

|
 
 | PM-----------|

| S S S S S S S S S S S S S S S S S S S S S S S S 3x
 
 |-------------------------|---------------------------||
 |-------------------------|--------------------------o||
 |-------------------------|---------------------------||
 |-4-4---4-4---4-4---4-4---|-5-5---5-5-----------------||
 |-5-5---5-5---5-5---5-5---|-3-3---3-3-0-3--2-0-----5-o||
 |-------------------------|--------------------3-0----||

|
| S S S S S S S S S S S S S S S S S S S S S S S S 3x
 
 |-------------------------|---------------------------||
 |-------------------------|--------------------------o||
 |-------------------------|---------------------------||
 |-4-4---4-4---4-4---4-4---|-5-5---5-5-----------------||
 |-5-5---5-5---5-5---5-5---|-3-3---3-3-0-3--2-0-----5-o||
 |-------------------------|--------------------3-0----||

&
[(C5)]  
[4/4] Gtr IV
S S S S S S E H S S S S S S E H
 
 |-----3h5p3--------------------|-----3h5p3------------------------------||
 |-3h5-------5p3-/5-------------|-3h5-------5p3-/5-----------------------||
 |------------------------------|----------------------------------------||
 |------------------------------|----------------------------------------||
 |------------------------------|----------------------------------------||
 |------------------------------|----------------------------------------||

|
| Gtr II
| E. E. E E +S +E. E E. E. E E +E +E E
 
 |------------------------------|----------------------------------------||
 |------------------------------|----------------------------------0-----||
 |-------------0--4-(4)b5r(4)p0-|-------------0-[4]b5====(4)-(4)rp=0-----||
 |-------5----------------------|-------5--------------------------------||
 |-3----------------------------|-3--------------------------------------||
 |------------------------------|----------------------------------------||

|
| Gtr I
| E. E. E E +S +E. E E. E. E E +E +E +S S
 
 |------------------------------|----------------------------------------||
 |------------------------------|--------------------------------------0-||
 |-------------0--4-(4)b5r(4)p0-|-------------0-[4]b5.5==(4)-(4)--(4)rp0-||
 |-------5----------------------|-------5--------------------------------||
 |-3----------------------------|-3--------------------------------------||
 |------------------------------|----------------------------------------||

Bridge
[C5] E S E. E [Em] E. E. E
 
 |-------------------------12-------10--------|
 |-/12----13-12------13--------------------13-|
 |--------------------------------------------|
 |--------------------------------------------|
 |--------------------------------------------|
 |--------------------------------------------|

|
| S S S S E S S S S S S e e
 
 |--------------------------------------------|
 |--------------------------------------------|
 |--------------------------------------------|
 |--------------------------------------------|
 |--10-10-10-10------10-10-10--10---10--10-10-|
 |---8--8--8--8-------8--8--0---0----0---0--0-|

|
| S S S S S S S S S S S S e e
 
 |--------------------------------------------|
 |--------------------------------------------|
 |--------------------------------------------|
 |--------------------------------------------|
 |--10-10-10-10--x-x-10-10-10--10-x-10--10-10-|
 |---8--8--8--8--x-x--8--8--0---0-x--0---0--0-|

[D5] ~~[Csus2/D] [E]
E. E. E Q Q
 
 |----------------------------------------------|
 |-12--------10------------10-------------------|
 |-------------------12--------------12---------|
 |----------------------------------------------|
 |----------------------------------------------|
 |----------------------------------------------|

|
| ~~
| S S S S E S S S S S S E a E
 
 |----------------------------------------------|
 |----------------------------------------------|
 |----------------------------------------------|
 |----------------------------------------------|
 |-12--12-12-12------12-12-12-12-x-x-15-(15)s19-|
 |-10--10-10-10------10-10-10-10-x-x-10-(10)p=0-|

|
| ~~
| S S S S S S S S S S S S E a E
 
 |----------------------------------------------|
 |----------------------------------------------|
 |----------------------------------------------|
 |----------------------------------------------|
 |-12--12-12-12--x-x-12-12-12-12-x-x-15-(15)s19-|
 |-10--10-10-10--x-x-10-10-10-10-x-x-10-(10)p=0-|

[C5] E S E. E [Em] E. E. E
 
 |-----------------------12-------10--------|
 |-/12----13-12----13--------------------13-|
 |------------------------------------------|
 |------------------------------------------|
 |------------------------------------------|
 |------------------------------------------|

|
| S S S S E S S S S S S e e
 
 |------------------------------------------|
 |------------------------------------------|
 |------------------------------------------|
 |------------------------------------------|
 |--10-10-10-10----10-10-10--10---10--10-10-|
 |---8--8--8--8-----8--8--0---0----0---0--0-|

|
| S S S S E S S S S S S e e
 
 |------------------------------------------|
 |------------------------------------------|
 |------------------------------------------|
 |------------------------------------------|
 |--10-10-10-10----10-10-10--10---10--10-10-|
 |---8--8--8--8-----8--8--0---0----0---0--0-|

[D5] T T E. +H.[Csus2/D] [E]
 
 |-------------------------------------------------|
 |-12h13p12--------(12)----------------------------|
 |-------------------------------------------------|
 |-------------------------------------------------|
 |-------------------------------------------------|
 |-------------------------------------------------|

|
| ~~
| S S S S E S S S S S S E a E
 
 |-------------------------------------------------|
 |-------------------------------------------------|
 |-------------------------------------------------|
 |-------------------------------------------------|
 |-12----12--12-12------12-12-12-12-x-x-15-(15)s19-|
 |-10----10--10-10------10-10-10-10-x-x-10-(10)p=0-|

|
| ~~
| S S S S E S S S S S S E a E
 
 |-------------------------------------------------|
 |-------------------------------------------------|
 |-------------------------------------------------|
 |-------------------------------------------------|
 |-12----12--12-12------12-12-12-12-x-x-15-(15)s19-|
 |-10----10--10-10------10-10-10-10-x-x-10-(10)p=0-|

[C5] S S S E. E [Em] E. E. E
 
 |-------------------------------------------|
 |-------------------------------------------|
 |-17-16-17-16------17S===19-------17-----16-|
 |--x--x--x--x-------x-----x--------x------x-|
 |-15-14-15-14------15S===17-------15-----14-|
 |-------------------------------------------|

|
| S S S S E S S S S S S e e
 
 |-------------------------------------------|
 |-------------------------------------------|
 |-------------------------------------------|
 |-------------------------------------------|
 |-10-10-10-10------10-10-10--10---10--10-10-|
 |--8--8--8--8-------8--8--0---0----0---0--0-|

|
| S S S S S S S S S S S S e e
 
 |-------------------------------------------|
 |-------------------------------------------|
 |-------------------------------------------|
 |-------------------------------------------|
 |-10-10-10-10--x-x-10-10-10--10-x-10--10-10-|
 |--8--8--8--8--x-x--8--8--0---0-x--0---0--0-|

[D5] E. E. E E. S [Csus2/D] +Q[E]
 
 |------------------------------------------------|
 |------------------------------------------------|
 |-14--------12----11----12-------11-(11)---------|
 |--x---------x-----x-----x--------x--------------|
 |-12--------10-----9----10--------9--(9)---------|
 |------------------------------------------------|

|
| ~~
| S S S S E S S S S S S E a E
 
 |------------------------------------------------|
 |------------------------------------------------|
 |------------------------------------------------|
 |------------------------------------------------|
 |-12--12-12-12----12-12-12--12-x--x--15--(15)s19-|
 |-10--10-10-10----10-10-10--10-x--x--10--(10)p=0-|

|
| ~~
| S S S S E S S S S S S E a E
 
 |------------------------------------------------|
 |------------------------------------------------|
 |------------------------------------------------|
 |------------------------------------------------|
 |-12--12-12-12----12-12-12--12-x--x--15--(15)s19-|
 |-10--10-10-10----10-10-10--10-x--x--10--(10)p=0-|

[C5] S S S E. E [Em] E. E. E
 
 |-------------------------------------------|
 |-------------------------------------------|
 |-17-16-17-16------17S===19-------17-----19-|
 |--x--x--x--x-------x-----x--------x------x-|
 |-15-14-15-14------15S===17-------15-----17-|
 |-------------------------------------------|

|
| S S S S E S S S S S S e e
 
 |-------------------------------------------|
 |-------------------------------------------|
 |-------------------------------------------|
 |-------------------------------------------|
 |-10-10-10-10------10-10-10--10---10--10-10-|
 |--8--8--8--8-------8--8--0---0----0---0--0-|

|
| S S S S S S S S S S S S e e
 
 |-------------------------------------------|
 |-------------------------------------------|
 |-------------------------------------------|
 |-------------------------------------------|
 |-10-10-10-10--x-x-10-10-10--10-x-10--10-10-|
 |--8--8--8--8--x-x--8--8--0---0-x--0---0--0-|

[D5] E. S +H [Csus2/D] +Q[E]
 
 |-------------------------------------------------||
 |-------------------------------------------------||
 |-21--------19-(19)-----------------(19)\---------||
 |--x---------x------------------------------------||
 |-19--------17-(17)-----------------(17)\---------||
 |-------------------------------------------------||

|
| ~~
| S S S S E S S S S S S E a E
 
 |-------------------------------------------------||
 |-------------------------------------------------||
 |-------------------------------------------------||
 |-------------------------------------------------||
 |-12--12-12-12------12-12-12-12-x-x--15---(15)s19-||
 |-10--10-10-10------10-10-10-10-x-x--10---(10)p=0-||

|
| ~~
| S S S S E S S S S S S E a E
 
 |-------------------------------------------------||
 |-------------------------------------------------||
 |-------------------------------------------------||
 |-------------------------------------------------||
 |-12--12-12-12------12-12-12-12-x-x--15---(15)s19-||
 |-10--10-10-10------10-10-10-10-x-x--10---(10)p=0-||

[E5]Gtr IV[C/E] [E5] [Dsus2/E5]
E E E E S S S S S S E
 
 ||-----------------------------------------------|
 ||o---------------15-13----13p12----12-----------|
 ||---------12--------------------14----14-12-14\-|
 ||--/14------------------------------------------|
 ||o----------------------------------------------|
 ||-----------------------------------------------|

|
| Gtrs I, II
| PM---| PM| PM|
| S S S E. S S E S S E E
 
 ||-----------------------------------------------|
 ||o----------------------------------------------|
 ||-----------------------------------------------|
 ||-----------------------------------------------|
 ||o--14-14-14-14-----14-14-15----14-14-17----14--|
 ||---12-12-12-12-----12-12-12----12-12-12----12--|

E E E E [C/E] S S [E5] S S [Dsus2/E5] S S E
 
 |----------------------------------------------|
 |---------------15-13----13p12----12-----------|
 |--------12--------------------14----14-12-14\-|
 |-/14------------------------------------------|
 |----------------------------------------------|
 |----------------------------------------------|

|
| PM---| PM| PM|
| S S S E. S S E S S E E
 
 |----------------------------------------------|
 |----------------------------------------------|
 |----------------------------------------------|
 |----------------------------------------------|
 |--14-14-14-14-----14-14-15----14-14-17----14--|
 |--12-12-12-12-----12-12-12----12-12-12----12--|

1.
[D5] E E E E [Bm/D] S S [D5] S E [Csus2/D5] S E
 
 |---------------------------------------------|
 |---------------------------------------------|
 |--------11-----14-12----12p11----11----12----|
 |-/12--------------------------14----------14-|
 |---------------------------------------------|
 |---------------------------------------------|

|
| PM---| PM| PM|
| S S S E. S S E S S E E
 
 |---------------------------------------------|
 |---------------------------------------------|
 |---------------------------------------------|
 |---------------------------------------------|
 |--12-12-12-12-----12-12-14----12-12-15----12-|
 |--10-10-10-10-----10-10-10----10-10-10----10-|

[C5] S +E [E5] E S [A5] E S [D5] E S [C5] E [G/B] E
 
 |-------------------------------------------------||
 |------------------------------------------------o||
 |-14b16==(14)r----14---12-11---12------11---------||
 |---------------------------------14------12-14\--||
 |------------------------------------------------o||
 |-------------------------------------------------||

|
 
 | PM----------| PM| PM| PM|

| S S S S S S S S S S S S e e
 
 |-------------------------------------------------||
 |------------------------------------------------o||
 |-------------------------------------------------||
 |------------------9-9--9----------7-7--7--5--5---||
 |-10------10---10--7-7--7--7-7--7--5-5--5--3--2--o||
 |--8-------8----8----------5-5--5-----------------||

2.
[D5] E E E E [Bm/D] S S [D5] S E [Csus2/D5] S E
 
 |---------------------------------------------|
 |---------------------------------------------|
 |--------11-----14-12----12p11----11----12----|
 |-/12--------------------------14----------14-|
 |---------------------------------------------|
 |---------------------------------------------|

|
| PM---| PM| PM|
| S S S E. S S E S S E E
 
 |---------------------------------------------|
 |---------------------------------------------|
 |---------------------------------------------|
 |---------------------------------------------|
 |--12-12-12-12-----12-12-14----12-12-15----12-|
 |--10-10-10-10-----10-10-10----10-10-10----10-|

[C5] [E5] [A5] [D5] [C5] [G/B] ~~
S +E E S E S E S E E
 
 |-----------------------------------------------||
 |-----------------------------------------------||
 |-14b16==(14)r----14---12-11---12------11-------||
 |---------------------------------14------12-14-||
 |-----------------------------------------------||
 |-----------------------------------------------||

|
 
 | PM----------| PM| PM| PM|

| S S S S S S S S S S S S e e
 
 |-----------------------------------------------||
 |-----------------------------------------------||
 |-----------------------------------------------||
 |------------------9-9--9----------7-7--7--5--5-||
 |-10------10---10--7-7--7--7-7--7--5-5--5--3--2-||
 |--8-------8----8----------5-5--5---------------||

Interlude
[E5] [C/E] [Dsus2/E] [E5] 
[2/4] ~~~~~~~~~~~~~~~~~~~~~~~~~~~~~~~~~~~~~~~~~~~~~
[+B] [+B] [+B]  
 
 ||---------------------|--------------------|--------------------|
 ||o--------------------|--------------------|--------------------|
 ||---------------------|--------------------|--------------------|
 ||--(14)---------------|-(14)---------------|-(14)---------------|
 ||o--------------------|--------------------|--------------------|
 ||---------------------|--------------------|--------------------|

|
| Gtrs I, II
 
 | PM----------| PM--| PM--| PM----------|

| S S S S S S S S S S S S S S S S S S S S S S S S
 
 ||---------------------|--------------------|--------------------|
 ||o--------------------|--------------------|--------------------|
 ||---------------------|--------------------|--------------------|
 ||----2----------------|---2--------2-------|---2----------------|
 ||o---2--2-2-2-2-2-2-2-|---3--3-3-3-5-5-5-5-|---2--2-2-2-2-2-2-2-|
 ||----0--0-0-0-0-0-0-0-|---0--0-0-0-0-0-0-0-|---0--0-0-0-0-0-0-0-|

N.C.
Gtr II
 
 PM----------------------------| ~~~~

T T T T T T T T T T T T E
 
 |---------------------------------------|
 |---------------------------------------|
 |-------------------------------12-[12]-|
 |--------------------12-0h12h14---------|
 |---------12-0h12h14--------------------|
 |-0h12h14-------------------------------|

|
| Gtr I
 
 | PM----------------------------| ~~~~

| T T T T T T T T T T T T E
 
 |---------------------------------------|
 |---------------------------------------|
 |--------------------------------5--[5]-|
 |---------------------5-0h=5h=7---------|
 |----------5-0h=5h=7--------------------|
 |-0h=5h=7-------------------------------|

1.,2. 3.
~~~~
S S S S S E. 3x S S S S S S E
 
 |-----------------------||--------------------------||
 |----------------------o||--------------------------||
 |-----------------------||--------------------------||
 |------------[12]-------||------------[12]----------||
 |---------13------[13]-o||---------13------[13]\----||
 |-0-12-15---------------||-0-12-15------------------||

|
| ~~~~
| S S S S S E. 3x S S S S S S E
 
 |-----------------------||--------------------------||
 |----------------------o||--------------------------||
 |--------------7--------||-------------[7]----------||
 |----------7-------[8]--||----------7-------[8]\----||
 |-7--7-10--------------o||-7--7-10------------------||
 |-----------------------||--------------------------||

Breakdown
6[B5]/8[F#m/A] [B5] [F#m/A]
Gtrs I, II
S S S S S S S S S S S S
 
 |-------------------------|
 |-------------------------|
 |-------------------------|
 |-4-4---4-4---4-4---4-4---|
 |-2-2---0-0---2-2---0-0---|
 |-------------------------|

B5 F#m/A N.C.
7/8
~~~
S S S S S S T T T T T T T T T T T T E
 
 |-------------------------------------------------------------------|
 |-------------------------------------------------------------------|
 |-----------(0)-[5]p[4]p[0]-------------[5]p[4]p[0]-------------[5]-|
 |-4-4---4-4-(0)-------------[5]p[4]p[0]-------------[5]p[4]p[0]-----|
 |-2-2---0-0---------------------------------------------------------|
 |-------------------------------------------------------------------|

6[B5]/8[F#m/A] [B5] [F#m/A]
S S S S S S S S S S S S
 
 |-------------------------|
 |-------------------------|
 |-------------------------|
 |-4-4---4-4---4-4---4-4---|
 |-2-2---0-0---2-2---0-0---|
 |-------------------------|

B5 F#m/A N.C.
7/8
S S S S S S T T T T T T T T T T T T S S
 
 |--------------------------------------------------------------------------|
 |--------------------------------------------------------------------------|
 |-----------(0)-[5]p[4]p[0]-------------[5]p[4]p[0]-------------[5]-/[7]\--|
 |-4-4---4-4-----------------[5]p[4]p[0]-------------[5]p[4]p[0]------------|
 |-2-2---0-0----------------------------------------------------------------|
 |--------------------------------------------------------------------------|

6[B5]/8[F#m/A] [B5] [F#m/A]
S S S S S S S S S S S S
 
 |-------------------------|
 |-------------------------|
 |-------------------------|
 |-4-4---4-4---4-4---4-4---|
 |-2-2---0-0---2-2---0-0---|
 |-------------------------|

B5 F#m/A N.C.
7/8
~~~
S S S S S S T T T T T T T T T T T T E
 
 |-------------------------------------------------------------------|
 |-------------------------------------------------------------------|
 |-----------(0)-[5]p[4]p[0]-------------[5]p[4]p[0]-------------[5]-|
 |-4-4---4-4-----------------[5]p[4]p[0]-------------[5]p[4]p[0]-----|
 |-2-2---0-0---------------------------------------------------------|
 |-------------------------------------------------------------------|

6[B5]/8[F#m/A] [B5] [F#m/A] [B5] [F#m/A] [A5]
S S S S S S S S S S S S S S S S S S E E E
 
 |-------------------------|-------------------||
 |-------------------------|-------------------||
 |-------------------------|-------------------||
 |-4-4---4-4---4-4---4-4---|-4-4---4-4---2-2-2-||
 |-2-2---0-0---2-2---0-0---|-2-2---0-0---0-0-0-||
 |-------------------------|-------------------||

Guitar Break
[(Gsus2)] [(Bsus2)]  
[4/4] Gtr II
E. E. S S E. E. E +H +Q. E 4x
 
 ||---------------------|---------------------||
 ||o--------------------|--------------------o||
 ||---------------------|---------------------||
 ||--------7p0-------11-|-(11)----(11)--------||
 ||o----5---------9-----|--------------------o||
 ||--3---------7--------|----------------(0)--||

|
| Gtr I
| E. E. S S E. E. E +H +Q. E 4x
 
 ||---------------------|---------------------||
 ||o--------------------|--------------------o||
 ||---------------------|---------------------||
 ||--------7p0-------11-|-(11)----(11)--------||
 ||o----5---------9-----|-----------------0--o||
 ||--3---------7--------|---------------------||

[(Csus2)]E. E. E +H +H +Q. E
 
 |-------------------|--------------------|
 |-------------------|--------------------|
 |-------------------|--------------------|
 |--------12-(12)----|-(12)----(12)-------|
 |----10-------------|----------------(0)-|
 |-8-----------------|--------------------|

|
| E. E. E +H +H +Q. E
 
 |-------------------|--------------------|
 |-------------------|--------------------|
 |-------------------|--------------------|
 |--------12-(12)----|-(12)----(12)----0--|
 |----10-------------|-----------------0--|
 |-8-----------------|--------------------|

E. E. E +H +W
 
 |-------------------|------------------||
 |-------------------|------------------||
 |-------------------|------------------||
 |--------12-(12)----|-(12)-------------||
 |----10-------------|------------------||
 |-8-----------------|------------------||

|
| E. E. E +H +H +Q. E
 
 |-------------------|------------------||
 |-------------------|------------------||
 |-------------------|------------------||
 |--------12-(12)----|-(12)----(12)---x-||
 |----10-------------|----------------x-||
 |-8-----------------|------------------||

Bridge
6[Bsus2]/8[D/E] [Bsus2] [D/E] [Bsus2] [D/E] [Bsus2] [D/E]
Gtr V
Q. E Q +Q. E E S +S
 
 |-------------------------------|----------------------------9-(9)b10r=|
 |----------------10----12-------|-(12)------------10----12-------------|
 |-------------------------------|--------------------------------------|
 |-------------------------------|--------------------------------------|
 |-------------------------------|--------------------------------------|
 |-------------------------------|--------------------------------------|

|
| Gtrs I, II
| PM-| PM| PM| PM| PM-| PM| PM| PM|
| S S S S S S S S S S S S S S S S S S S S S S S S
 
 |-------------------------------|--------------------------------------|
 |-------------------------------|--------------------------------------|
 |-------------------------------|--------------------------------------|
 |-11--11---0-0---11-11----0-0---|--11--11---0-0---11-11----0-0---------|
 |--9---9---9-9----9--9----9-9---|---9---9---9-9----9--9----9-9---------|
 |--7---7---0-0----7--7----0-0---|---7---7---0-0----7--7----0-0---------|

[Gsus2]+Q. [Dsus2/Gsus2] Q. [Dsus2/E] [Gsus2]Q. [Dsus2/Gsus2] E Q[Dsus2/E]
 
 |-(9)-------------------------|----------------------------|
 |---------------10------------|-7------------10---12-------|
 |-----------------------------|----------------------------|
 |-----------------------------|----------------------------|
 |-----------------------------|----------------------------|
 |-----------------------------|----------------------------|

|
 
 | PM-------| PM-| PM| PM-------| PM| PM|

| S S S S S S S S S S S S S S S S S S S S S S S S
 
 |-----------------------------|----------------------------|
 |-----------------------------|----------------------------|
 |-----------------------------|----------------------------|
 |--7--7---0-0----7--7---0-0---|-7--7---0-0----7-7----0-0---|
 |--5--5---5-5----5--5---5-5---|-5--5---5-5----5-5----5-5---|
 |--3--3---0-0----3--3---0-0---|-3--3---0-0----3-3----0-0---|

[Bsus2] +Q. [D/E] [Bsus2] E Q [D/E] [Bsus2] +Q. [D/E] [Bsus2] E E [D/E] S +S
 
 ||---------------------------------|----------------------------9-(9)b10r=|
 ||o-(12)------------10----12-------|-(12)------------10----12-------------|
 ||---------------------------------|--------------------------------------|
 ||---------------------------------|--------------------------------------|
 ||o--------------------------------|--------------------------------------|
 ||---------------------------------|--------------------------------------|

|
| PM-| PM| PM| PM| PM-| PM| PM| PM|
| S S S S S S S S S S S S S S S S S S S S S S S S
 
 ||---------------------------------|--------------------------------------|
 ||o--------------------------------|--------------------------------------|
 ||---------------------------------|--------------------------------------|
 ||---11--11---0-0---11-11----0-0---|--11--11---0-0---11-11----0-0---------|
 ||o---9---9---9-9----9--9----9-9---|---9---9---9-9----9--9----9-9---------|
 ||----7---7---0-0----7--7----0-0---|---7---7---0-0----7--7----0-0---------|

[Gsus2]+Q. [Dsus2/Gsus2] Q. [Dsus2/E] [Gsus2]Q. [Dsus2/Gsus2] E Q [Dsus2/E] 4x
 
 |-(9)-------------------------|-----------------------------||
 |---------------10------------|-7------------10---12-------o||
 |-----------------------------|-----------------------------||
 |-----------------------------|-----------------------------||
 |-----------------------------|----------------------------o||
 |-----------------------------|-----------------------------||

|
 
 | PM-------| PM-| PM| PM-------| PM| PM|

| S S S S S S S S S S S S S S S S S S S S S S S S 4x
 
 |-----------------------------|-----------------------------||
 |-----------------------------|----------------------------o||
 |-----------------------------|-----------------------------||
 |--7--7---0-0----7--7---0-0---|-7--7---0-0----7-7----0-0----||
 |--5--5---5-5----5--5---5-5---|-5--5---5-5----5-5----5-5---o||
 |--3--3---0-0----3--3---0-0---|-3--3---0-0----3-3----0-0----||

[Bsus2] +Q. [D/E] [Bsus2] E Q [D/E] [Bsus2] +Q. [D/E] [Bsus2] E E [D/E] S +S
 
 |--------------------------------|----------------------------9-(9)b10r=|
 |-(12)------------10----12-------|-(12)------------10----12-------------|
 |--------------------------------|--------------------------------------|
 |--------------------------------|--------------------------------------|
 |--------------------------------|--------------------------------------|
 |--------------------------------|--------------------------------------|

|
| PM-| PM| PM| PM| PM-| PM| PM| PM|
| S S S S S S S S S S S S S S S S S S S S S S S S
 
 |--------------------------------|--------------------------------------|
 |--------------------------------|--------------------------------------|
 |--------------------------------|--------------------------------------|
 |--11--11---0-0---11-11----0-0---|--11--11---0-0---11-11----0-0---------|
 |---9---9---9-9----9--9----9-9---|---9---9---9-9----9--9----9-9---------|
 |---7---7---0-0----7--7----0-0---|---7---7---0-0----7--7----0-0---------|

[Gsus2]+Q. [Dsus2/Gsus2] Q. [Dsus2/E] [Gsus2]Q. [Dsus2/Gsus2] E Q[Dsus2/E]
 
 |-(9)-------------------------|----------------------------||
 |---------------10------------|-7------------10---12-------||
 |-----------------------------|----------------------------||
 |-----------------------------|----------------------------||
 |-----------------------------|----------------------------||
 |-----------------------------|----------------------------||

|
 
 | PM-------| PM-| PM| PM-------| PM| PM|

| S S S S S S S S S S S S S S S S S S S S S S S S
 
 |-----------------------------|----------------------------||
 |-----------------------------|----------------------------||
 |-----------------------------|----------------------------||
 |--7--7---0-0----7--7---0-0---|-7--7---0-0----7-7----0-0---||
 |--5--5---5-5----5--5---5-5---|-5--5---5-5----5-5----5-5-5-||
 |--3--3---0-0----3--3---0-0---|-3--3---0-0----3-3----0-0-0-||

Interlude
[F#5]  
[4/4] Gtr IV
[+B] [E] [E] [E] [E]  
 
 ||-----------------------------------------|
 ||o-(12)-----------------------------------|
 ||---------------------14---13---14---13---|
 ||----------------------x----x----x----x---|
 ||o--------------------12---11---12---11---|
 ||-----------------------------------------|

|
| S S S S S S S S S S S S S S S S
 
 ||-----------------------------------------|
 ||o----------------------------------------|
 ||-----------------------------------------|
 ||----4--4-4-4-4-4-4-4--4-4--4-4--4-4--4-4-|
 ||o---4--4-4-4-4-4-4-4--4-4--4-4--4-4--4-4-|
 ||----2--2-2-2-2-2-2-2--2-2--2-2--2-2--2-2-|

[D5] +S S Q +E E E E E
 
 |--------------------------------------------|
 |--------------------------------------------|
 |-(13)-11S9-------(9)S==14---13---14---13----|
 |-------x-x--------------x----x----x----x----|
 |-(11)--9S7-------(7)S==12---11---12---11----|
 |--------------------------------------------|

|
| S S S S S S S S S S S S S S S S
 
 |--------------------------------------------|
 |--------------------------------------------|
 |---7---7-7-7-7-7--7--7--7-7--7-7--7-7--7-7--|
 |---7---7-7-7-7-7--7--7--7-7--7-7--7-7--7-7--|
 |---5---5-5-5-5-5--5--5--5-5--5-5--5-5--5-5--|
 |--------------------------------------------|

[A5] +S S Q +E E E E E
 
 |-------------------------------------------|
 |-------------------------------------------|
 |-(13)-11S9-------(9)S==14---13---14---16---|
 |-------x-x--------------x----x----x----x---|
 |-(11)--9S7-------(7)S==12---11---12---14---|
 |-------------------------------------------|

|
| S S S S S S S S S S S S S S S S
 
 |-------------------------------------------|
 |-------------------------------------------|
 |-------------------------------------------|
 |---7---7-7-7-7-7--7--7--7-7--7-7--7-7--7-7-|
 |---7---7-7-7-7-7--7--7--7-7--7-7--7-7--7-7-|
 |---5---5-5-5-5-5--5--5--5-5--5-5--5-5--5-5-|

[E5] [E] ~~~~~~[A5]~~~~~[Bsus4]
+Q +S S S S Q Q
 
 |----------------------------------------------||
 |---------------------------------------------o||
 |-(16)-------(16)-16-14-13-14-------11---------||
 |----------------------------------------------||
 |-(14)-------(14)-----------------------------o||
 |----------------------------------------------||

|
 
 | PM---------------|

| S S S S S S S S S S S S S S S S
 
 |----------------------------------------------||
 |---------------------------------------------o||
 |---------------------------1-1---2-

Important: The song above is NOT stored on the Chordie server. The original song is hosted at www.guitaretab.com. Chordie works as a search engine and provides on-the-fly formatting. Chordie does not index songs against artists'/composers' will. To remove this song please click here.

Text color:
Chord color:
Chord grids: 
Font size:    
Page size: 

A5 Bm/D Bsus2 B5 Bsus4 C/E C5 Csus2/D D/E D5 Dsus2/E E E5 Em Esus2 F#5 F#m/A G/B Gsus2
Rate #1 of 2 versions

Jango Player

Login - add to songbook

SHARE PAGE  




You need to log in to post comments