Guitar Tabs, Chords and Lyrics
Major upgrade!! After one year development the new version of Chordie is now online! Please give feedback.


Second Stage Turbine Blade   Coheed and Cambria

 
 |-21---------18-|-20--------|-21---------18-|-20----||
 |---------------|-----------|---------------|-------||
 |---------------|-----------|---------------|-------||
 |---------------|-----------|---------------|-------||
 |---------------|-----------|---------------|-------||
 |---------------|-----------|---------------|-------||

 


 


 Main Theme


 [(Em)]Gtr II


 W +W


 | |


 o /


 


 Gtr I


 H.. E W


 

 
 ||--21-----------------------------------------18-|-20-------------------------------------------|
 ||o-----------------------------------------------|----------------------------------------------|
 ||------------------------------------------------|----------------------------------------------|
 ||------------------------------------------------|----------------------------------------------|
 ||o-----------------------------------------------|----------------------------------------------|
 ||------------------------------------------------|----------------------------------------------|

 


 |


 | Gtr III


 | H +E E +S E. E. S +E E +S E. +Q


 

 
 ||------------------------------------------------|----------------------------------------------|
 ||o-16------------------(16)-13-------(13)-14-----|-----------13-(13)----------------------------|
 ||------------------------------------------------|-15-------------------13-(13)-15--------(15)--|
 ||------------------------------------------------|----------------------------------------------|
 ||o-----------------------------------------------|----------------------------------------------|
 ||------------------------------------------------|----------------------------------------------|

 


 |


 | Gtr IV


 | S S E S S E E. T T Q S S E S S E E. T T Q


 

 
 ||--14---13-------13------------------------------|-14--13------------13-------------------------|
 ||o---------14-14----13--13-----13-14-------------|--------14-----14-----13--13------13-14-------|
 ||-------------------------------------15---------|-----------------------------------------15---|
 ||------------------------------------------------|----------------------------------------------|
 ||o-----------------------------------------------|----------------------------------------------|
 ||------------------------------------------------|----------------------------------------------|

 


 


 [(C)] W +W


 | |


 o /


 


 H.. E W


 

 
 |-21-------------------------------18-|--20-------------------------------------||
 |-------------------------------------|----------------------------------------o||
 |-------------------------------------|-----------------------------------------||
 |-------------------------------------|-----------------------------------------||
 |-------------------------------------|----------------------------------------o||
 |-------------------------------------|-----------------------------------------||

 


 |


 | H.. E +E E +E E +H


 

 
 |-------------------------------------|-----------------------------------------||
 |-16-------------------------------13-|-(13)----14-(14)------------------------o||
 |-------------------------------------|--------------------15-(15)--------------||
 |-------------------------------------|-----------------------------------------||
 |-------------------------------------|----------------------------------------o||
 |-------------------------------------|-----------------------------------------||

 


 |


 | S S E S S E E. T T Q S S E S S E E. T T Q


 

 
 |-14---13-------13--------------------|--14--13---------13----------------------||
 |---------14-14----13-13--13-14-------|---------14--14-----13--13--13-14-------o||
 |-------------------------------15----|----------------------------------15-----||
 |-------------------------------------|-----------------------------------------||
 |-------------------------------------|----------------------------------------o||
 |-------------------------------------|-----------------------------------------||

 


 


 Outro


 [(Em)] W +W


 

 
 |-20--------|-(20)----*|
 |-----------|---------*|
 |-----------|---------*|
 |-----------|---------*|
 |-----------|---------*|
 |-----------|---------*|

 


 |


 | W +W


 

 
 |-----------|---------*|
 |-15--------|-(15)----*|
 |-----------|---------*|
 |-----------|---------*|
 |-----------|---------*|
 |-----------|---------*|

 


 |


 | W +W


 

 
 |-13--------|-(13)----*|
 |-----------|---------*|
 |-----------|---------*|
 |-----------|---------*|
 |-----------|---------*|
 |-----------|---------*|

 


 


 Duration Legend


 

 
 ---------------
 W - whole; H - half; Q - quarter; E - 8th; S - 16th; T - 32nd; X - 64th; a - acciaccatura

 


 + - note tied to previous; . - note dotted; .. - note double dotted


 Uncapitalized letters represent notes that are staccato (1/2 duration)


 Irregular groupings are notated above the duration line


 Duration letters will always appear directly above the note/fret number it represents the


 duration for. Duration letters with no fret number below them represent rests. Multi-


 bar rests are notated in the form Wxn, where n is the number of bars to rest for. Low


 melody durations appear below the staff


 


 Tablature Legend


 

 
 ----------------

 


 h - hammer-on


 p - pull-off


 b - bend


 pb - pre-bend


 r - bend release (if no number after the r, then release immediately)


 /\ - slide into or out of (from/to "nowhere")


 s - legato slide


 S - shift slide


 - natural harmonic


 (n) - artificial harmonic


 n(n) - tapped harmonic


 ~ - vibrato


 tr - trill


 T - tap


 TP - trem. picking


 PM - palm muting


 \n/ - tremolo bar dip; n = amount to dip


 \n - tremolo bar down


 n/ - tremolo bar up


 /n\ - tremolo bar inverted dip


 = - hold bend; also acts as connecting device for hammers/pulls


 - volume swell (louder/softer)


 x - on rhythm slash represents muted slash


 o - on rhythm slash represents single note slash


 


 Misc Legend


 

 
 -----------


Important: The song above is NOT stored on the Chordie server. The original song is hosted at www.guitaretab.com. Chordie works as a search engine and provides on-the-fly formatting. Chordie does not index songs against artists'/composers' will. To remove this song please click here.

This song is displayed as text-only. Transposing and tuning is only available for chordpro-songs.
Rate #1 of 2 versions

Login - add to songbook

SHARE PAGE  




You need to log in to post comments