Guitar Tabs, Chords and Lyrics
Major upgrade!! After one year development the new version of Chordie is now online! Please give feedback.


Crossing the Frame  Coheed and Cambria

As recorded by Coheed And Cambria
(From the 2005 Album GOOD APOLLO, I'M BURNING STAR IV - VOLUME ONE: FROM FEAR THROUGH THE EYES OF MADNESS)
Words by Claudio Sanchez
Music by Coheed And Cambria
Transcribed by Nero15 + sprinklerthief
Gtr I (Eb Ab Db Gb Bb Eb) - 'dist.'
Gtr II (Eb Ab Db Gb Bb Eb) - 'dist.'
Gtr III (Eb Ab Db Gb Bb Eb) - 'dist.'
Gtr IV (Eb Ab Db Gb Bb Eb) - 'dist.'
Intro
Q=162
B5 F#m/A A5 N.C.
3/8 4/4
Gtr II
E Q E E E E E E E E E E E Q. E E
 
 |------||-10-9---------/12-----10-|-----9---7-------9----|
 |------||------10-----------------|----------------------|
 |------||---------11--------------|----------------------|
 |------||-------------------------|----------------------|
 |------||-------------------------|----------------------|
 |------||-------------------------|----------------------|

|
| Gtr I
| PM--| PM---|
| E Q E E E E E E E E +E E E E E E E E
 
 |------||-------------------------|----------------------|
 |------||-------------------------|----------------------|
 |------||-------------------------|----------------------|
 |------||--4-4-----4-----2h=4---2-|-(2)--------7---------|
 |------||--2-0-----0-----0-(0)--0-|-(0)-0---5----5-/7-5\-|
 |------||-------------------------|-------3--------------|

B5 F#m/A A5 N.C.
E E E E E E E E E E E Q. E E
 
 |-10-9---------10-----9-|-----7---9--------------|
 |------10---------------|----------------10------|
 |---------11------------|------------------------|
 |-----------------------|------------------------|
 |-----------------------|------------------------|
 |-----------------------|------------------------|

|
| PM
| E E E E E E E E +E E E E E E E E
 
 |-----------------------|------------------------|
 |-----------------------|------------------------|
 |-----------------------|------------------------|
 |--4-4-----4----2h=4--2-|-(2)--------7-----------|
 |--2-0-----0----0-(0)-0-|-(0)-0---5----5-/7-5\---|
 |-----------------------|-------3----------------|

B5 F#m/A A5 N.C.
E E E E E E E E E E E Q. E E
 
 |-10-9---------/12-----10-|-----9---7-------9----|
 |------10-----------------|----------------------|
 |---------11--------------|----------------------|
 |-------------------------|----------------------|
 |-------------------------|----------------------|
 |-------------------------|----------------------|

|
| PM
| E E E E E E E E +E E E E E E E E
 
 |-------------------------|----------------------|
 |-------------------------|----------------------|
 |-------------------------|----------------------|
 |--4-4-----4-----2h=4---2-|-(2)--------7---------|
 |--2-0-----0-----0-(0)--0-|-(0)-0---5----5-/7-5\-|
 |-------------------------|-------3--------------|

[B5] E E [F#m/A] E E E [A5] E +E E E E E S S Q Q
 
 |-10-9---------12b14-(12)-12-|-----10---9h10p9--7--||
 |------10--------------------|---------------------||
 |---------11-----------------|---------------------||
 |----------------------------|---------------------||
 |----------------------------|---------------------||
 |----------------------------|---------------------||

|
| E E E E E E E E +H. Q
 
 |----------------------------|---------------------||
 |----------------------------|---------------------||
 |----------------------------|---------------------||
 |--4-4-----4----2h=====4---2-|-(2)-----------------||
 |--2-0-----0----0-----(0)--0-|-(0)--------------0--||
 |----------------------------|---------------------||

Verses
N.C.
>
a W +W +W W
 
 |-7s9---------------|-(9)---------------|-(9)---------------|-----------------|
 |-------------------|-------------------|-------------------|-----------------|
 |-------------------|-------------------|-------------------|-----------------|
 |-------------------|-------------------|-------------------|-----------------|
 |-------------------|-------------------|-------------------|-----------------|
 |-------------------|-------------------|-------------------|-----------------|

|
 
 | PM| PM PM PM--------------------------| PM PM PM----------------|

| E E E E E E E E E E E E E E E E E E E E E E E E E E E E E E E E
 
 |-------------------|-------------------|-------------------|-----------------|
 |-------------------|-------------------|-------------------|-----------------|
 |-------------------|-------------------|-------------------|-----------------|
 |-------------4-----|-----------7-------|-------------4-----|---------7-------|
 |---------5-------7-|-----5-------5-----|---------5-------7-|---5-------5-----|
 |---7-5-------------|-------5-7-----7-5-|--7--5-------------|-----5-7-----7-5-|

Gtr I
 
 PM| PM PM PM----------------------| PM PM PM----------------|

[E] [E] [E] [E] [E] [E] [E] [E] [E] [E] [E] [E] [E] [E] [E] [E] [E] [E] [E] [E] [E] [E] [E] [E] [E] [E] [E] [E] [E] [E] [E] [E]  
 
 |-----------------|-----------------|-----------------|------------------|
 |-----------------|-----------------|-----------------|------------------|
 |-----------------|-----------------|-----------------|------------------|
 |-----------4-----|---------7-------|-----------4-----|---------7--------|
 |-------5-------7-|---5-------5-----|-------5-------7-|---5-------5------|
 |-7-5-------------|-----5-7-----7-5-|-7-5-------------|-----5-7-----7-5--|

$
Gtr II
 
 PM----| PM----|

[E] [E] [E] [E] [E] [a] [E] [E] [E] [E] [E] [E] [E] [E] [E] [E] [E] [E] [E] [E] [E] [E] [a] [E] [E] [E] [E] [E] [E] [E] [E] [E] [E] [E]  
 
 |--------------------|-----------------|--------------------|------------------|
 |--------------------|-----------------|--------------------|------------------|
 |-----------9h11---9-|---9s7s6-7s9-7p6-|-----------9h11---9-|---9s7s6-7s9------|
 |-9-7---7------------|-----------------|-9-7---7------------|-------------7----|
 |--------------------|-----------------|--------------------|------------------|
 |--------------------|-----------------|--------------------|------------------|

|
| Gtr I
 
 | PM| PM PM PM----------------------| PM PM PM----------------|

| E E E E E E E E E E E E E E E E E E E E E E E E E E E E E E E E
 
 |--------------------|-----------------|--------------------|------------------|
 |--------------------|-----------------|--------------------|------------------|
 |--------------------|-----------------|--------------------|------------------|
 |--------------4-----|---------7-------|--------------4-----|---------7--------|
 |-------5----------7-|---5-------5-----|-------5----------7-|---5-------5------|
 |-7-5----------------|-----5-7-----7-5-|-7-5----------------|-----5-7-----7-5--|

PM----|
[E] [E] [E] [E] [E] [a] [E] [E] [E] [E] [E] [E] [E] [E] [E] [E] [E]  
 
 |--------------------|-----------------|
 |--------------------|-----------------|
 |-----------9h11---9-|---9s7s6-7s9-7p6-|
 |-9-7---7------------|-----------------|
 |--------------------|-----------------|
 |--------------------|-----------------|

|
 
 | PM| PM PM PM-------------------

| E E E E E E E E E E E E E E E E
 
 |--------------------|-----------------|
 |--------------------|-----------------|
 |--------------------|-----------------|
 |--------------4-----|---------7-------|
 |-------5----------7-|---5-------5-----|
 |-7-5----------------|-----5-7-----7-5-|

PM----|
E E E E E a E E E E E E E E E Q
 
 |--------------------|------------------||
 |--------------------|------------------||
 |-----------9h11---9-|---9s7s6-7s9------||
 |-9-7---7------------|------------------||
 |--------------------|------------------||
 |--------------------|------------------||

|
 
 |---| PM PM PM----------------|

| E E E E E E E E E E E E E E E E
 
 |--------------------|------------------||
 |--------------------|------------------||
 |--------------------|------------------||
 |--------------4-----|---------7--------||
 |-------5----------7-|---5-------5------||
 |-7-5----------------|-----5-7-----7-5--||

Pre-chorus
A5 N.C. G5 B5 A5 N.C. G5 B5 A5
Gtrs I, II
[E] [E] [E] [E] [E] [E] [E] [E] [E] [E] [E] [E] [E] [E] [E] [E] [E] [E] [E] [E] [E] [E] [E] [E] [E] [E] [E] [E] [E] [E] [E] [E]  
 
 |-----------------|-----------------|-----------------|------------------|
 |-----------------|-----------------|-----------------|------------------|
 |-----------------|-----------------|-----------------|------------------|
 |-------4---------|-----------------|-------4---------|------------------|
 |-7-7-----5-----5-|---5---x-9-9-9-7-|---7-----5-----5-|---5---x-9-9-9-7--|
 |-5-5-------7---3-|---3---x-7-7-7-5-|---5-------7---3-|---3---x-7-7-7-5--|

N.C. G5 B5 A5 N.C. A5 B5 D5 E5
[E] [E] [E] [E] [E] [E] [E] [E] [E] [E] [E] [E] [E] [E] [E] [E] [E] [E] [E] [E] [E] [E] [E] [E] [E] [E] [E] [E] [E] [E] [E] [E]  
 
 |-----------------|-----------------|-----------------|-------------------||
 |-----------------|-----------------|-----------------|-------------------||
 |-----------------|-----------------|-----------------|-------------------||
 |-------4---------|-----------------|-------4---------|-------7---9-9\-0--||
 |---7-----5-----5-|---5---x-9-9-9-7-|---7-----5-----7-|---9---5---7-7\-0--||
 |---5-------7---3-|---3---x-7-7-7-5-|---5-------7-x-5-|---7---------------||

Chorus
[G5]Gtr II[E5]
PM| PM| PM|
Q E E E E E E +Q E E E E E E +Q E E E E E E
 
 |-----------------|-------------------|-----------------3-|
 |---------3h5p3---|-----------3h5p3---|-----------3h5p3---|
 |-------2-------4-|-(4)-----2-------4-|-(4)-----2---------|
 |-----0-----------|-------0-----------|-------0-----------|
 |-----------------|-------------------|-------------------|
 |-----------------|-------------------|-------------------|

|
| Gtrs I, III
| E E E E E E E E E E E E E E E E E E E E E E E E
 
 |-----------------|-------------------|-------------------|
 |-----------------|-------------------|-------------------|
 |-----------------|-------------------|-------------------|
 |-----------------|-------------------|-------------------|
 |-5-5-5-5-5-5-5-5-|--5--5-5-5-5-5-5-5-|--5--5-5-5-5-5-5-2-|
 |-3-3-3-3-3-3-3-3-|--3--3-3-3-3-3-3-3-|--3--3-3-3-3-3-3-0-|

N.C. G5
PM--| PM-|
[E] [E] [E] [E] [E] [E] [E] [E] [E] [E] [E] [E] [E] [E] [E] [E]  
 
 |---2-------------|--------------------|
 |-----------------|----------3h5p3-----|
 |-----------------|--------2-------4---|
 |-------2---------|-----0--------------|
 |-------------0-2p|=0-x----------------|
 |---------2-3-----|---x----------------|

|
| PM--|
| E E E E E E E E E E Q. E E E
 
 |-----------------|--------------------|
 |-----------------|--------------------|
 |-----------------|--------------------|
 |-----------------|--------------------|
 |-x-2-x-2-----0-2p|=0-x-5------5-5-5---|
 |-x-0-x-0-2-3-----|---x-3------3-3-3---|

PM| PM|[E5]
+Q E E E E E E +Q E E E E E E
 
 ||--------------------|-----------------3-|
 ||o-----------3h5p3---|-----------3h5p3---|
 ||--(4)-----2-------4-|-(4)-----2---------|
 ||--------0-----------|-------0-----------|
 ||o-------------------|-------------------|
 ||--------------------|-------------------|

|
| E E E E E E E E E E E E E E E E
 
 ||--------------------|-------------------|
 ||o-------------------|-------------------|
 ||--------------------|-------------------|
 ||--------------------|-------------------|
 ||o--5--5-5-5-5-5-5-5-|--5--5-5-5-5-5-5-2-|
 ||---3--3-3-3-3-3-3-3-|--3--3-3-3-3-3-3-0-|

N.C. G5
PM--| PM-|
[E] [E] [E] [E] [E] [E] [E] [E] [E] [E] [E] [E] [E] [E] [E] [E]  
 
 |---2-------------|-------------------||
 |-----------------|----------3h5p3---o||
 |-----------------|--------2-------4--||
 |-------2---------|-----0-------------||
 |-------------0-2p|=0-x--------------o||
 |---------2-3-----|---x---------------||

|
| PM--|
| E E E E E E E E E E Q. E E E
 
 |-----------------|-------------------||
 |-----------------|------------------o||
 |-----------------|-------------------||
 |-----------------|-------------------||
 |-x-2-x-2-----0-2p|=0-x-5------5-5-5-o||
 |-x-0-x-0-2-3-----|---x-3------3-3-3--||

D.S.
PM| PM|[E5]
+Q E E E E E E +Q E E E E E E E E E Q E Q
 
 |-------------------|-----------------3-|---2---0---2-----||
 |-----------3h5p3---|-----------3h5p3---|-------------3---||
 |-(4)-----2-------4-|-(4)-----2---------|-----------------||
 |-------0-----------|-------0-----------|-----------------||
 |-------------------|-------------------|-----------------||
 |-------------------|-------------------|-----------------||

|
| PM--|
| E E E E E E E E E E E E E E E E E E E E E E E E
 
 |-------------------|-------------------|-----------------||
 |-------------------|-------------------|-----------------||
 |-------------------|-------------------|-----------------||
 |-------------------|-------------------|-----------------||
 |--5--5-5-5-5-5-5-5-|--5--5-5-5-5-5-5-2-|-x-2-x-2-x-2-2-2-||
 |--3--3-3-3-3-3-3-3-|--3--3-3-3-3-3-3-0-|-x-0-x-0-x-0-0-0-||

Bridge
N.C.
Wx8
 
 |--------|
 |--------|
 |--------|
 |--------|
 |--------|
 |--------|

Gtr IV[D5]
Q Q Q Q Q E E E E E E Q Q Q Q Q E E Q Q
 
 |-------------|------9-7----------|----------------|-------9-7-------9----|
 |-3--5--7--8--|-10--10-8-10-8-7-5-|-3---5---7---8--|-10---10-8-10---10----|
 |-4--6--7--9--|-11-------11-9-7-6-|-4---6---7---9--|-11--------11---------|
 |-------------|-------------------|----------------|----------------------|
 |-------------|-------------------|----------------|----------------------|
 |-------------|-------------------|----------------|----------------------|

|
| Gtr II
| Q Q Q Q Q E E E E E E Q Q Q Q Q E E Q Q
 
 |-------------|-------------------|----------------|----------------------|
 |-------------|-----10-8----------|----------------|------10-8------10----|
 |-4--6--7--9--|-11-------11-9-7-6-|-4---6---7---9--|-11--------11---------|
 |-------------|-------------------|----------------|----------------------|
 |-------------|-------------------|----------------|----------------------|
 |-------------|-------------------|----------------|----------------------|

|
| Gtr III
| <
| PM----|
| W W E E E E E E Q E E Q E E E E
 
 |-------------|-------------------|----------------|----------------------|
 |-------------|-------------------|----------------|----------------------|
 |-------------|-------------------|----------------|----------------------|
 |-------------|-------------------|-7-7-7-7-7-7-7--|--7-7--7----7-7--x-x--|
 |-------------|-------------------|-5-5-5-5-5-5-5--|--5-5--5----5-5--x-x--|
 |-------------|-------------------|----------------|----------------------|

[D5]Gtr II
Q E E Q Q Q Q E E E E
 
 |-------------14---12---|----------------------|
 |-/15---14-15-----------|-15---14---12s10------|
 |-----------------------|-----------------11---|
 |-----------------------|----------------------|
 |-----------------------|----------------------|
 |-----------------------|----------------------|

|
| Gtrs I, III
| E E E E E E E E E E E E E E E E
 
 |-----------------------|----------------------|
 |-----------------------|----------------------|
 |-----------------------|----------------------|
 |---7-7--7--7--7-7--7-7-|--7-7--7-7--7--7--7-7-|
 |---5-5--5--5--5-5--5-5-|--5-5--5-5--5--5--5-5-|
 |-----------------------|----------------------|

[A5] Q E E Q Q Q Q E E E E
 
 |------------14---12---|-----------------------|
 |-15---14-15-----------|-15---14---12s10-------|
 |----------------------|-----------------11----|
 |----------------------|-----------------------|
 |----------------------|-----------------------|
 |----------------------|-----------------------|

|
| E E E E E E E E E E E E E E E E
 
 |----------------------|-----------------------|
 |----------------------|-----------------------|
 |----------------------|-----------------------|
 |----------------------|-----------------------|
 |--7-7--7--7--7-7--7-7-|--7-7--7-7--7--7--7-7--|
 |--5-5--5--5--5-5--5-5-|--5-5--5-5--5--5--5-5--|

[C#5] Q E E Q Q Q Q E E E E
 
 |------------14---12---|----------------------|
 |-15---14-15-----------|-15---14---12s10------|
 |----------------------|-----------------11---|
 |----------------------|----------------------|
 |----------------------|----------------------|
 |----------------------|----------------------|

|
| E E E E E E E E E E E E E E E E
 
 |----------------------|----------------------|
 |----------------------|----------------------|
 |----------------------|----------------------|
 |--6-6--6--6--6-6--6-6-|--6-6--6-6--6--6--6-6-|
 |--4-4--4--4--4-4--4-4-|--4-4--4-4--4--4--4-4-|
 |----------------------|----------------------|

[A5]~~~~~~~~~~~~~~~~~~~~~~~~~~~~
[B] [B] [B] [B]  
 
 |-----------------|------------------|
 |-----------------|------------------|
 |-9-------7-------|-6-------4--------|
 |-----------------|------------------|
 |-----------------|------------------|
 |-----------------|------------------|

|
| E E E E E E E E E E E E E E E E
 
 |-----------------|------------------|
 |-----------------|------------------|
 |-----------------|------------------|
 |-----------------|------------------|
 |-7-7-7-7-7-7-7-7-|-7-7-7-7-7-7-7-7--|
 |-5-5-5-5-5-5-5-5-|-5-5-5-5-5-5-5-5--|

[G5]Gtr IV
Q Q Q Q Q E E E E E E
 
 |-----------------|-------9-7----------|
 |-3---5---7---8---|-10---10-8-10-8-7-5-|
 |-4---6---7---9---|-11--------11-9-7-6-|
 |-----------------|--------------------|
 |-----------------|--------------------|
 |-----------------|--------------------|

|
| Gtr II
| Q Q Q Q Q E E E E E E
 
 |-----------------|--------------------|
 |-----------------|------10-8----------|
 |-4---6---7---9---|-11--------11-9-7-6-|
 |-----------------|--------------------|
 |-----------------|--------------------|
 |-----------------|--------------------|

|
| Gtrs I, III
| E E E E E E E E E E E E E E E E
 
 |-----------------|--------------------|
 |-----------------|--------------------|
 |-----------------|--------------------|
 |-----------------|--------------------|
 |-5-5-5-5-5-5-5-5-|--5-5--5-5--5-5-5-5-|
 |-3-3-3-3-3-3-3-3-|--3-3--3-3--3-3-3-3-|

Q Q Q Q Q E E E E Q
 
 |-----------------|-------9-7-----------||
 |-3---5---7---8---|-10---10-8-10-8-7----||
 |-4---6---7---9---|-11--------11-9-7----||
 |-----------------|---------------------||
 |-----------------|---------------------||
 |-----------------|---------------------||

|
| Q Q Q Q Q E E E E Q
 
 |-----------------|---------------------||
 |-----------------|------10-8-----------||
 |-4---6---7---9---|-11--------11-9-7----||
 |-----------------|---------------------||
 |-----------------|---------------------||
 |-----------------|---------------------||

|
| E E E E E E E E E E E E E E E E
 
 |-----------------|---------------------||
 |-----------------|---------------------||
 |-----------------|---------------------||
 |-----------------|---------------------||
 |-5-5-5-5-5-5-5-5-|--5-5--5-5--5-5-5-5--||
 |-3-3-3-3-3-3-3-3-|--3-3--3-3--3-3-3-3--||

Pre-chorus
A5 N.C. G5 B5 A5 N.C. G5 B5 A5
Gtrs II, IV
>
~~~~~~~~~~~~~~~~~~~~~~~~~~~~~~~~~~~~~~~~~~~~~~~~~~~~~~~~~~~~~~
W +W +W +W
 
 |-----------------|-------------------|-------------------|--------------------|
 |-----------------|-------------------|-------------------|--------------------|
 |-----------------|-------------------|-------------------|--------------------|
 |-7---------------|-(7)---------------|-(7)---------------|-(7)----------------|
 |-----------------|-------------------|-------------------|--------------------|
 |-----------------|-------------------|-------------------|--------------------|

|
| Gtrs I, III
| E E E E E E E E E E E E E E E E E E E E E E E E E E E E E E E E
 
 |-----------------|-------------------|-------------------|--------------------|
 |-----------------|-------------------|-------------------|--------------------|
 |-----------------|-------------------|-------------------|--------------------|
 |-------4---------|-------------------|---------4---------|--------------------|
 |-7-7-----5-----5-|-----5---x-9-9-9-7-|-----7-----5-----5-|-----5---x-9-9-9-7--|
 |-5-5-------7---3-|-----3---x-7-7-7-5-|-----5-------7---3-|-----3---x-7-7-7-5--|

N.C. G5 B5 A5 N.C. A5
Gtr III
[E] [E] [E] [E] [E] [E] [E] [E] [E] [E] [E] [E] [E] [E] [E] [E] [E] [E] [E] [E] [E] [E] [E] [E]  
 
 |-----------------|-----------------|-----------------|
 |-----------------|-----------------|-----------------|
 |-----------------|-----------------|-----------------|
 |-------4---------|-----------------|-------4---------|
 |---7-----5-----5-|---5---x-9-9-9-7-|---7-----5-----7-|
 |---5-------7---3-|---3---x-7-7-7-5-|---5-------7-x-5-|

|
| Gtr I
| E E E E E E E E E E E E E E E E E E E E E E E E
 
 |-----------------|-----------------|-----------------|
 |-----------------|-----------------|-----------------|
 |-----------------|-----------------|-----------------|
 |-------4---------|-----------------|-------4---------|
 |---7-----5-----5-|---5---x-9-9-9-7-|---7-----5-----7-|
 |---5-------7---3-|---3---x-7-7-7-5-|---5-------7-x-5-|

E [B5]E E [D5]E E [E5]E E [B5]E E [D5]E E [E5]E E [G5] E Q
 
 |-----------------|---------------------||
 |-----------------|---------------------||
 |-----------------|---------------------||
 |-------7---9-----|---7---9---12-12\----||
 |---9---5---7---9-|---5---7-------------||
 |---7-----------7-|---------------------||

|
| E E E E E E E E E E E E E E Q
 
 |-----------------|---------------------||
 |-----------------|---------------------||
 |-----------------|---------------------||
 |-------7---9-----|---7---9---12-12\----||
 |---9---5---7---9-|---5---7---10-10\----||
 |---7-----------7-|---------------------||

Outro Chorus
Gtr II[E5]
PM| PM| PM|
Q E E E E E E +Q E E E E E E +Q E E E E E E
 
 |-----------------|-------------------|-----------------3-|
 |---------3h5p3---|-----------3h5p3---|-----------3h5p3---|
 |-------2-------4-|-(4)-----2-------4-|-(4)-----2---------|
 |-----0-----------|-------0-----------|-------0-----------|
 |-----------------|-------------------|-------------------|
 |-----------------|-------------------|-------------------|

|
| Gtrs I, III, IV
| E E E E E E E E E E E E E E E E E E E E E E E E
 
 |-----------------|-------------------|-------------------|
 |-----------------|-------------------|-------------------|
 |-----------------|-------------------|-------------------|
 |-----------------|-------------------|-------------------|
 |-5-5-5-5-5-5-5-5-|--5--5-5-5-5-5-5-5-|--5--5-5-5-5-5-5-2-|
 |-3-3-3-3-3-3-3-3-|--3--3-3-3-3-3-3-3-|--3--3-3-3-3-3-3-0-|

N.C. G5
PM--| PM-|
[E] [E] [E] [E] [E] [E] [E] [E] [E] [E] [E] [E] [E] [E] [E] [E]  
 
 |---2-------------|--------------------|
 |-----------------|----------3h5p3-----|
 |-----------------|--------2-------4---|
 |-------2---------|-----0--------------|
 |-------------0-2p|=0-x----------------|
 |---------2-3-----|---x----------------|

|
| PM--|
| E E E E E E E E E E Q. E E E
 
 |-----------------|--------------------|
 |-----------------|--------------------|
 |-----------------|--------------------|
 |-----------------|--------------------|
 |-x-2-x-2-----0-2p|=0-x-5------5-5-5---|
 |-x-0-x-0-2-3-----|---x-3------3-3-3---|

PM| PM|[E5]
+Q E E E E E E +Q E E E E E E
 
 ||--------------------|-----------------3-|
 ||o-----------3h5p3---|-----------3h5p3---|
 ||--(4)-----2-------4-|-(4)-----2---------|
 ||--------0-----------|-------0-----------|
 ||o-------------------|-------------------|
 ||--------------------|-------------------|

|
| E E E E E E E E E E E E E E E E
 
 ||--------------------|-------------------|
 ||o-------------------|-------------------|
 ||--------------------|-------------------|
 ||--------------------|-------------------|
 ||o--5--5-5-5-5-5-5-5-|--5--5-5-5-5-5-5-2-|
 ||---3--3-3-3-3-3-3-3-|--3--3-3-3-3-3-3-0-|

1.,2.
N.C. G5
PM--| PM-|
E E E E E E E E E E E E E E E E 3x
 
 |---2-------------|-------------------||
 |-----------------|----------3h5p3---o||
 |-----------------|--------2-------4--||
 |-------2---------|-----0-------------||
 |-------------0-2p|=0-x--------------o||
 |---------2-3-----|---x---------------||

|
| PM--|
| E E E E E E E E E E Q. E E E 3x
 
 |-----------------|-------------------||
 |-----------------|------------------o||
 |-----------------|-------------------||
 |-----------------|-------------------||
 |-x-2-x-2-----0-2p|=0-x-5------5-5-5-o||
 |-x-0-x-0-2-3-----|---x-3------3-3-3--||

3.
E E [G5]H. +W +W +W
 
 |-------------|------------|------------|--------*|
 |-------------|------------|------------|--------*|
 |-------------|------------|------------|--------*|
 |-------------|------------|------------|--------*|
 |-0-x-5-------|-(5)--------|-(5)--------|-(5)----*|
 |---x-3-------|-(3)--------|-(3)--------|-(3)----*|

|
| E E H. +W +W +W
 
 |-------------|------------|------------|--------*|
 |-------------|------------|------------|--------*|
 |-------------|------------|------------|--------*|
 |-------------|------------|------------|--------*|
 |-0-x-5-------|-(5)--------|-(5)--------|-(5)----*|
 |---x-3-------|-(3)--------|-(3)--------|-(3)----*|

Duration Legend
 
 ---------------
 W - whole; H - half; Q - quarter; E - 8th; S - 16th; T - 32nd; X - 64th; a - acciaccatura

+ - note tied to previous; . - note dotted; .. - note double dotted
Uncapitalized letters represent notes that are staccato (1/2 duration)
Irregular groupings are notated above the duration line
Duration letters will always appear directly above the note/fret number it represents the
duration for. Duration letters with no fret number below them represent rests. Multi-
bar rests are notated in the form Wxn, where n is the number of bars to rest for. Low
melody durations appear below the staff
Tablature Legend
 
 ----------------

h - hammer-on
p - pull-off
b - bend
pb - pre-bend
r - bend release (if no number after the r, then release immediately)
/\ - slide into or out of (from/to "nowhere")
s - legato slide
S - shift slide
- natural harmonic
(n) - artificial harmonic
n(n) - tapped harmonic
~ - vibrato
tr - trill
T - tap
TP - trem. picking
PM - palm muting
\n/ - tremolo bar dip; n = amount to dip
\n - tremolo bar down
n/ - tremolo bar up
/n\ - tremolo bar inverted dip
= - hold bend; also acts as connecting device for hammers/pulls
- volume swell (louder/softer)
x - on rhythm slash represents muted slash
o - on rhythm slash represents single note slash
Misc Legend
 
 -----------

| - bar
|| - double bar
||o - repeat start
o|| - repeat end
*| - double bar (ending)
: - bar (freetime)
$ - Segno
& - Coda
Tempo markers - = BPM(8/16=s8/s16), where s8 = swing 8ths, s16 = swing 16ths

Important: The song above is NOT stored on the Chordie server. The original song is hosted at www.guitaretab.com. Chordie works as a search engine and provides on-the-fly formatting. Chordie does not index songs against artists'/composers' will. To remove this song please click here.

Text color:
Chord color:
Chord grids: 
Font size:    
Page size: 

A5 B B5 C#5 D5 E E5 F#m/A G5
Rate #1 of 1 versions

Login - add to songbook

SHARE PAGE  




You need to log in to post comments