Guitar Tabs, Chords and Lyrics
Server problems seems to be fixed. Chordie has been experiencing problems with songs disappearing. These issues now seems to be fixed, but still verifying the fix. If you find anything strange, please email admin@chordie.com.


Hearshot Kid Disaster  Coheed and Cambria

x 7 x[E] 9 x x 10 10 [C5]10 x x x 8 8 [Bb5]8 x x x 5 5 [D/G]4 x x x
5 7[Em/G] x x x x 0 9 x[D] x x x x 2 [B5]4 x x x x 0[F#m/A] 4 x x x
5 5[Gsus2] 7 x x x 4 4 [F#5]x x x x x 7 [E5]9 x x x 12 12[D5] x x x x
x x [D/F#]x x 7 10 x x[Esus2] x 9 7 x x x 1[C#m]1 9 x x 4 4 [F#m]7 x x x
5 5 [G5]x x x x 7 7 [A5]x x x x
Gtr I (D A D G B E) - 'clean'
Gtr II (D A D G B E) - 'clean'
Gtr III (D A D G B E) - 'dist.'
Gtr IV (D A D G B E) - 'dist.'
Intro
Moderately Fast Q=108
[E] [C5] [Bb5] [(D)] [E] [C5] [Bb5] [(D)] 
[4/4] Gtr I
E. S S E. E S S S E S S S E S E. E S S S E S
 
 |---------------------------|----------------------------|
 |---------------------------|----------------------------|
 |-9-------------------------|-9-9-9----------------------|
 |-x--x-x-10--8\---x-x--0--x-|-x-x-x-x-10--8\---x-x--0--x-|
 |-7--x-x-10--8\---x-x-(0)-x-|-7-7-7-x-10--8\---x-x-(0)-x-|
 |--------10--8\-------------|---------10--8\-------------|

[E] [C5] [Bb5] [(D)] [E] [C5]Gtr [Bb5]III[(D)]
E E S E. E S S S E S S S E S E. E S S S E S
 
 |--------------------------|----------------------------|
 |--------------------------|----------------------------|
 |-9-9----------------------|-9-9-9----------------------|
 |-x-x-x-10--8\---x-x--0--x-|-x-x-x---10--8\---x-x--0--x-|
 |-7-7-x-10--8\---x-x-(0)-x-|-7-7-7---10--8\---x-x-(0)-x-|
 |-------10--8\-------------|---------10--8\-------------|

Faster Q=114
[E] E E S [C5] E. [Bb5] E S S S [(D)] E S [E] S S E S [C5] E. [Bb5] E S S S [(D)] E S
 
 ||-------------------------------|--------------------------------|
 ||o------------------------------|--------------------------------|
 ||---9-9-------------------------|--9-9-9-------------------------|
 ||---x-x--x-10---8\---x--x--0--x-|--x-x-x--x-10---8\---x--x--0--x-|
 ||o--7-7--x-10---8\---x--x-(0)-x-|--7-7-7--x-10---8\---x--x-(0)-x-|
 ||----------10---8\--------------|-----------10---8\--------------|

|
| Gtr IV
| TP TP TP TP TP TP TP TP
| Q Q Q Q Q Q Q Q
 
 ||--15---15-----15------15-------|-15-----15-----15------15-------|
 ||o-15---15-----15------15-------|-15-----15-----15------15-------|
 ||-------------------------------|--------------------------------|
 ||-------------------------------|--------------------------------|
 ||o------------------------------|--------------------------------|
 ||-------------------------------|--------------------------------|

[E] E E S [C5] E. [Bb5] E S S S [(D)] E S
 
 |------------------------------|
 |------------------------------|
 |--9-9-------------------------|
 |--x-x--x-10---8\---x--x--0--x-|
 |--7-7--x-10---8\---x--x-(0)-x-|
 |---------10---8\--------------|

|
| TP TP TP TP
| Q Q Q Q
 
 |-15---15-----15------15-------|
 |-15---15-----15------15-------|
 |------------------------------|
 |------------------------------|
 |------------------------------|
 |------------------------------|

1. 2.
[E] S S E S [C5] E. [Bb5] E S S S [(D)] E S [E] S S E S [C5] E. [Bb5] E Q.
 
 |---------------------------------||---------------------------||
 |--------------------------------o||---------------------------||
 |--9-9-9--------------------------||--9-9-9--------------------||
 |--x-x-x----10---8\---x--x--0--x--||--x-x-x----10---8----------||
 |--7-7-7----10---8\---x--x-(0)-x-o||--7-7-7----10---8----------||
 |-----------10---8\---------------||-----------10---8----------||

|
| TP TP TP TP TP TP TP
| Q Q Q Q Q Q E. Q S
 
 |-15-----15-----15------15--------||-15-----15-----15----------||
 |-15-----15-----15------15-------o||-15-----15-----15----------||
 |---------------------------------||---------------------------||
 |---------------------------------||---------------------------||
 |--------------------------------o||---------------------------||
 |---------------------------------||---------------------------||

Pre-Verse
Slower Q=82
D/G Em/G D N.C.
S S S S S S S S S S S S S S E S S S S S S S S S S S S S E S
 
 |--------------------------------|-----------------------------------------|
 |--------------------------------|-----------------------------------------|
 |--------------------------------|-----------------------------------------|
 |-4-4-4---x-x-4-4-4---x-x--------|-----------------------------------------|
 |-5-5-5---x-x-5-5-5---x-x-x-7--7-|-9-9-9---x-x-9-9-9---14-14----15\--------|
 |-5-5-5---x-x-5-5-5---x-x-x-5--5-|-0-0-0---x-x-0-0-0-----------------------|

|
| PM--|
| S S S S S S S S S S S S S E. S S S S S S S S S S S S S S S S
 
 |--------------------------------|-----------------------------------------|
 |--------------------------------|-----------------------------------------|
 |--------------------------------|-----------------------------------------|
 |-4-4-4---x-x-4-4-4---x-x--------|-------------------x-19------------------|
 |-5-5-5---x-x-5-5-5---x-x-x-7----|-9-9-9---x-x-0-0-0------17-14h15---------|
 |-5-5-5---x-x-5-5-5---x-x-x-5----|-0-0-0---x-x-0-0-0----------------17-17--|

[D/G]S S S S S S S S S S S S S [Em/G]S E [D]S S S S S S S S S Q..
 
 |--------------------------------|-------------------------||
 |--------------------------------|-------------------------||
 |--------------------------------|-------------------------||
 |-4-4-4---x-x-4-4-4---x-x--------|-------------------------||
 |-5-5-5---x-x-5-5-5---x-x-x-7--7-|-9-9-9---x-x-9-9-9-------||
 |-5-5-5---x-x-5-5-5---x-x-x-5--5-|-0-0-0---x-x-0-0-0-------||

|
| PM--| PM--|
| S S S S S S S S S S S S S E. S S S S S S S S S Q..
 
 |--------------------------------|-------------------------||
 |--------------------------------|-------------------------||
 |--------------------------------|-------------------------||
 |-4-4-4---x-x-4-4-4---x-x---7----|-----------------0-------||
 |-5-5-5---x-x-5-5-5---x-x-x-7----|-0-0-0---x-x-0-0-0-------||
 |-5-5-5---x-x-5-5-5---x-x-x-5----|-0-0-0---x-x-0-0-0-------||

Verse
[D/G]S S S S S S S S S S S S S [Em/G]S E [D] S S S S S S S S S S S S S [E5] S E 3x
 
 ||----------------------------------|----------------------------------------||
 ||o---------------------------------|---------------------------------------o||
 ||----------------------------------|----------------------------------------||
 ||--4-4-4---4---4-4-4-x-x-x-x-------|----------------------------------------||
 ||o-5-5-5---5---5-5-5-x-x-x-x-7-7---|--9--9-9---9----9--9-9---x-x--x-14-14\-o||
 ||--5-5-5---5---5-5-5-x-x-x-x-5-5---|--4--5-0---0----4--5-0---x-x--x-14-14\--||

|
| PM| PM| PM| PM| PM| PM PM PM|
| S S S S S S S S S S S S S S S S S S S S S S S S S S S S S S E 3x
 
 ||----------------------------------|----------------------------------------||
 ||o---------------------------------|-------------------------8-8-----------o||
 ||------7-----7-----7-----7-----7---|-----------------------------11-11--9---||
 ||--9-9---9-9---9-9---9-9---9-9---9-|----------------------------------------||
 ||o---------------------------------|-10-10-9-x-x-x-10-10-9-x---------------o||
 ||----------------------------------|--0--0-0-0-0-0--0--0-0-0----------------||

[D/G]S S S S S S S S S S S S S [Em/G]S E [D] S S S S S S S S S S S S S [E5] S E
 
 |---------------------------------|----------------------------------------||
 |---------------------------------|----------------------------------------||
 |---------------------------------|----------------------------------------||
 |-4-4-4---4---4-4-4-x-x-x-x-------|----------------------------------------||
 |-5-5-5---5---5-5-5-x-x-x-x-7-7---|--9--9-9---9----9--9-9---x-x--x-14-14\--||
 |-5-5-5---5---5-5-5-x-x-x-x-5-5---|--0--0-0---0----0--0-0---x-x--x-14-14\--||

|
| PM| PM| PM| PM| PM| PM
| S S S S S S S S S S S S S S S S S S S S S S S S S S S S S S E
 
 |---------------------------------|----------------------------------------||
 |---------------------------------|-------------------------8-8------------||
 |-----7-----7-----7-----7-----7---|-----------------------------11-11--9---||
 |-9-9---9-9---9-9---9-9---9-9---9-|----------------------------------------||
 |---------------------------------|-10-10-9---x-x-10-10-9-x----------------||
 |---------------------------------|--0--0-0---x-x--0--0-0-x----------------||

Verse Part 2
[D/G]S S S S S S S S S S S S S [Em/G]S E [D] S S S S S S S S S S S S S [E5] S E
 
 |---------------------------------|----------------------------------------|
 |---------------------------------|----------------------------------------|
 |---------------------------------|----------------------------------------|
 |-4-4-4---x-x-4-4-4---x-x---------|----------------------------------------|
 |-5-5-5---x-x-5-5-5---x-x-x-7-7---|--9--9-9---x-x--9--9-9---x-x--x-14-14\--|
 |-5-5-5---x-x-5-5-5---x-x-x-5-5---|--0--0-0---x-x--0--0-0---x-x--x-14-14\--|

|
| PM PM PM PM PM PM--|
| S S S S S S S S S S S S S S S S S S S S S S S S S S S S S S E
 
 |---------------7-----------------|----------------------------------------|
 |---7-----7-----------7-----7---7-|-------------------------8-8------------|
 |-----7-----7-----7-----7-----7---|-----------------------------11-11--9---|
 |-9-----9-----9-----9-----9-------|----------------------------------------|
 |---------------------------------|-10-10-9---x-x-10-10-9------------------|
 |---------------------------------|--0--0-0---x-x--0--0-0------------------|

[D/G]S S S S S S S S S S S S S [Em/G]S E [D] S S S S S S S S S S S S S [E5] S E
 
 |---------------------------------|-----------------------------------------|
 |---------------------------------|-----------------------------------------|
 |---------------------------------|-----------------------------------------|
 |-4-4-4---x-x-4-4-4---x-x---------|-----------------------------------------|
 |-5-5-5---x-x-5-5-5---x-x-x-7-7---|--9--9-9---x-x--9--9-9---x-x--x-14-14\---|
 |-5-5-5---x-x-5-5-5---x-x-x-5-5---|--0--0-0---x-x--0--0-0---x-x--x-14-14\---|

|
| PM| PM PM PM PM PM PM----|
| S S S S S S S S S S S S S S S S S S S S S S S S S S S S S S S S
 
 |-----------7-7---------7-7-7-----|-----------------------------------------|
 |-----7-----------7---------------|-------------------------8-8-------------|
 |-------7-----------7-------------|-----------------------------11-11--9--9-|
 |-9-9-----9-----9-----9-------9---|-----------------------------------------|
 |---------------------------------|-10-10-9---x-x-10-10-9-x-----------------|
 |---------------------------------|--0--0-0---x-x--0--0-0-0-----------------|

[D/G]S S S S S S S S S S S S S [Em/G]S E [D] S S S S S S S S S S S S S [E5] S E
 
 |---------------------------------|----------------------------------------|
 |---------------------------------|----------------------------------------|
 |---------------------------------|----------------------------------------|
 |-4-4-4---x-x-4-4-4---x-x---------|----------------------------------------|
 |-5-5-5---x-x-5-5-5---x-x-x-7-7---|--9--9-9---x-x--9--9-9---x-x--x-14-14\--|
 |-5-5-5---x-x-5-5-5---x-x-x-5-5---|--0--0-0---x-x--0--0-0---x-x--x-14-14\--|

|
| PM| PM| PM| PM| PM| PM
| S S S S S S S S S S S S S S S S S S S S S S S S S S S S S S E
 
 |---------------------------------|----------------------------------------|
 |---------------------------------|-------------------------8-8------------|
 |-----7-----7-----7-----7-----7---|-----------------------------11-11--9---|
 |-9-9---9-9---9-9---9-9---9-9---9-|----------------------------------------|
 |---------------------------------|-10-10-9---x-x-10-10-9-x----------------|
 |---------------------------------|--0--0-0---x-x--0--0-0-x----------------|

[D/G]S S S S S S S S S S S S S [Em/G]S E [D] S S S S S S S S S S S S S [E5] S E
 
 |---------------------------------|------------------------------------------||
 |---------------------------------|------------------------------------------||
 |---------------------------------|------------------------------------------||
 |-4-4-4---x-x-4-4-4---x-x---------|------------------------------------------||
 |-5-5-5---x-x-5-5-5---x-x-x-7-7---|--9--9--9---x-x--9--9--9-----x-x-x-14-14--||
 |-5-5-5---x-x-5-5-5---x-x-x-5-5---|--0--0--0---x-x--0--0--0-----x-x-x-14-14--||

|
| PM| PM| PM| PM| PM| PM
| S S S S S S S S S S S S S S S S S S S S S S S S S Q..
 
 |---------------------------------|------------------------------------------||
 |---------------------------------|------------------------------------------||
 |-----7-----7-----7-----7-----7---|-12-12-12---x-x-12-12-12------------------||
 |-9-9---9-9---9-9---9-9---9-9---9-|--x--x--x---x-x--x--x--x------------------||
 |---------------------------------|-10-10-10---x-x-10-10-10------------------||
 |---------------------------------|------------------------------------------||

Pre-Chorus
[B5] [F#m/A]  
 
 PM--------------------------------------------------------------|

S S S S S S S S S S S S S S S S S S S S S S S S S S S S S S S S
 
 |---------------------------------|---------------------------------|
 |---------------------------------|---------------------------------|
 |---------------------------------|---------------------------------|
 |-4-4-4-4-4-4-4-4-4-4-4-4-4-4-4-4-|-4-4-4-4-4-4-4-4-4-4-4-4-4-4-4---|
 |-2-2-2-2-2-2-2-2-2-2-2-2-2-2-2-2-|-0-0-0-0-0-0-0-0-0-0-0-0-0-0-0-0-|
 |---------------------------------|---------------------------------|

[D/G] [F#5] [E5]  
 
 PM--------------------------| PM| PM| PM| PM|

S S S S S S S S S S S S S S S S S S S S S S S S S S S S S S E
 
 |---------------------------------|--------------------------------------|
 |---------------------------------|--------------------------------------|
 |---------------------------------|--------------------------------------|
 |-4-4-4-4-4-4-4-4-4-4-4-4-4-4-4---|------------------------------9--9\---|
 |-5-5-5-5-5-5-5-5-5-5-5-5-5-5-5---|-4-4-4-4-4-4-4-4-4--4--4-x-x--7--7\---|
 |-5-5-5-5-5-5-5-5-5-5-5-5-5-5-5-0-|-4-4-4-4-4-4-4-4-4--4--4-x-x----------|

|
| Gtr IV
| W H S S S E S S S
 
 |---------------------------------|-------------------12-12-----12-12----|
 |---------------------------------|-------------------10-10-----10-10----|
 |---------------------------------|-------------------11-11-----11-11----|
 |---------------------------------|--------------------9--9------9--9----|
 |---------------------------------|--------------------------------------|
 |---------------------------------|--------------------------------------|

[B5]Gtr III[F#m/A]
 
 PM----------------------------------------------------------------|

S S S S S S S S S S S S S S S S S S S S S S S S S S S S S S S S
 
 |---------------------------------|-----------------------------------|
 |---------------------------------|-----------------------------------|
 |---------------------------------|-----------------------------------|
 |-4-4-4-4-4-4-4-4-4-4-4-4-4-4-4-4-|-4-4--4-4-4-4-4-4--4-4-4-4-4-4-4---|
 |-2-2-2-2-2-2-2-2-2-2-2-2-2-2-2-2-|-0-0--0-0-0-0-0-0--0-0-0-0-0-0-0-0-|
 |---------------------------------|-----------------------------------|

|
| PM| PM| PM| PM| PM
| S S S S S S S S S S S S S S S S S S S S S S S S S S S S S S S S
 
 |---5-----------5-----------5-----|-----10-----9-----10-----9---------|
 |-----3-0-5-0-----3-0-5-0-----3-0-|-5-7----7-7---7-7----7-7---7-7-7-7-|
 |-------------4-----------4-------|-----------------------------------|
 |---------------------------------|-----------------------------------|
 |---------------------------------|-----------------------------------|
 |---------------------------------|-----------------------------------|

[D/G]  
 
 PM------------------------------------------|

S S S S S S S S S S S S S S S S
 
 |------------------------------------------------|
 |------------------------------------------------|
 |------------------------------------------------|
 |-4--4--4--4--4--4--4--4--4--4--4--4--4--4--4----|
 |-5--5--5--5--5--5--5--5--5--5--5--5--5--5--5----|
 |-5--5--5--5--5--5--5--5--5--5--5--5--5--5--5--0-|

|
| PM| PM| PM| PM|
| S S S S S S S S S S S S S S S S
 
 |------14-------12-------10-------12-------14----|
 |-7-10----10-10----10-10----10-10----10-10----10-|
 |------------------------------------------------|
 |------------------------------------------------|
 |------------------------------------------------|
 |------------------------------------------------|

[F#5] PM| PM| PM| PM|[E5]
S S S S S S S S S S S S S S S S
 
 |---------------------------------------------||
 |---------------------------------------------||
 |---------------------------------------------||
 |--------------------------------------9--9---||
 |--4--4--4--4--4--4--4--4-4--4--4-x-x--7--7-0-||
 |--4--4--4--4--4--4--4--4-4--4--4-x-x---------||

|
| S S S S S S S S S S S E S S S
 
 |----12-12-12-12-12-12-12---12-12-----12-12---||
 |-10-10-10-10-10-10-10-10---10-10-----10-10---||
 |---------------------------11-11-----11-11---||
 |----------------------------9--9------9--9---||
 |---------------------------------------------||
 |---------------------------------------------||

Chorus 1
[B5] S S S S S S S S S S S S S S S S
 
 |-------------------------------------------------|
 |-------------------------------------------------|
 |-11-11-11-11-11-11-11-11-11-11-11-11-11-11-11-11-|
 |--9--9--9--9--9--9--9--9--9--9--9--9--9--9--9--9-|
 |--9--9--9--9--9--9--9--9--9--9--9--9--9--9--9--9-|
 |--9--9--9--9--9--9--9--9--9--9--9--9--9--9--9--9-|

|
| S S S S S S S S S S S S S S S S
 
 |-------------------------------------------------|
 |-------------------------------------------------|
 |-11-11-11-11-11-11-11-11-11-11-11-11-11-11-11-11-|
 |--9--9--9--9--9--9--9--9--9--9--9--9--9--9--9--9-|
 |--9--9--9--9--9--9--9--9--9--9--9--9--9--9--9--9-|
 |--9--9--9--9--9--9--9--9--9--9--9--9--9--9--9--9-|

[D5] S S S S S S S S S S S S S S S S
 
 |------------------------------------------------|
 |------------------------------------------------|
 |------------------------------------------------|
 |-14-14-14-14-14-14-14-14-14-14-14-14-14-14-14---|
 |-12-12-12-12-12-12-12-12-12-12-12-12-12-12-12---|
 |-12-12-12-12-12-12-12-12-12-12-12-12-12-12-12-0-|

|
| S S S S S S S S S S S S S S S S
 
 |------------------------------------------------|
 |------------------------------------------------|
 |------------------------------------------------|
 |-14-14-14-14-14-14-14-14-14-14-14-14-14-14-14---|
 |-12-12-12-12-12-12-12-12-12-12-12-12-12-12-12---|
 |-12-12-12-12-12-12-12-12-12-12-12-12-12-12-12-0-|

[Gsus2] [F#5] PM| PM| PM PM|
S S S S S S S S S S S S S S S S S S S S S S S S S S S S S S S S
 
 |---------------------------------|---------------------------------|
 |---------------------------------|---------------------------------|
 |---------------------------------|---------------------------------|
 |-7-7-7-7-7-7-7-7-7-7-7-7-7-7-7---|---------------------------------|
 |-5-5-5-5-5-5-5-5-5-5-5-5-5-5-5---|-0-0-0-4-4-4-5-4-4-7-7-7-7-9-9---|
 |-5-5-5-5-5-5-5-5-5-5-5-5-5-5-5-0-|-0-0-0-4-4-4-5-4-4-7-7-7-7-9-9-0-|

|
| S S S S S S S S S S S S S S S S S S S S S S S S S S S S S S S S
 
 |---------------------------------|---------------------------------|
 |---------------------------------|---------------------------------|
 |---------------------------------|---------------------------------|
 |-7-7-7-7-7-7-7-7-7-7-7-7-7-7-7---|---------------------------------|
 |-5-5-5-5-5-5-5-5-5-5-5-5-5-5-5---|-0-x-x-4-x-x-5-4-x-7-7-x-x-9-9---|
 |-5-5-5-5-5-5-5-5-5-5-5-5-5-5-5-0-|-0-x-x-4-x-x-5-4-x-7-7-x-x-9-9---|

[B5] S S S S S S S S S S S S S S S S
 
 |-------------------------------------------------|
 |-------------------------------------------------|
 |-11-11-11-11-11-11-11-11-11-11-11-11-11-11-11-11-|
 |--9--9--9--9--9--9--9--9--9--9--9--9--9--9--9--9-|
 |--9--9--9--9--9--9--9--9--9--9--9--9--9--9--9--9-|
 |--9--9--9--9--9--9--9--9--9--9--9--9--9--9--9--9-|

|
| S S S S S S S S S S S S S S S S
 
 |-----5-----------------5-----------------5-------|
 |--------3--0--5--0--------3--0--5--0--------3--0-|
 |--------------------4-----------------4----------|
 |-------------------------------------------------|
 |-------------------------------------------------|
 |-------------------------------------------------|

[D5] S S S S S S S S S S S S S S S S
 
 |------------------------------------------------|
 |------------------------------------------------|
 |------------------------------------------------|
 |-14-14-14-14-14-14-14-14-14-14-14-14-14-14-14---|
 |-12-12-12-12-12-12-12-12-12-12-12-12-12-12-12---|
 |-12-12-12-12-12-12-12-12-12-12-12-12-12-12-12-0-|

|
| PM| PM| PM| PM| PM
| S S S S S S S S S S S S S S S S
 
 |-------10--------9-------10--------9------------|
 |--5--7-----7--7-----7--7-----7--7-----7--7--7-7-|
 |------------------------------------------------|
 |------------------------------------------------|
 |------------------------------------------------|
 |------------------------------------------------|

[Gsus2]S S S S S S S S S S S S S S S S
 
 |------------------------------------------------|
 |------------------------------------------------|
 |------------------------------------------------|
 |-7--7--7--7--7--7--7--7--7--7--7--7--7--7--7----|
 |-5--5--5--5--5--5--5--5--5--5--5--5--5--5--5----|
 |-5--5--5--5--5--5--5--5--5--5--5--5--5--5--5--0-|

|
| PM| PM| PM| PM|
| S S S S S S S S S S S S S S S S
 
 |------14-------12-------10-------12-------14----|
 |-7-10----10-10----10-10----10-10----10-10----10-|
 |------------------------------------------------|
 |------------------------------------------------|
 |------------------------------------------------|
 |------------------------------------------------|

[F#5] PM| PM|[D5]
S S S S S S S S S Q..
 
 |-----------------------------------||
 |-----------------------------------||
 |-----------------------------------||
 |-----------------------------------||
 |--0--0--0--4--4--4--5--0--5--------||
 |--0--0--0--4--4--4--5--0--5--------||

|
| S S S S S S S S S Q..
 
 |----12-------10-------12-12--------||
 |-10----10-10----10-10--------------||
 |-----------------------------------||
 |-----------------------------------||
 |-----------------------------------||
 |-----------------------------------||

Verse 2
[D/G]S S S S S S S S S S S S S [Em/G]S E [D] S S S S S S S S S S S S S [E5] S E
 
 ||----------------------------------|----------------------------------------||
 ||o---------------------------------|---------------------------------------o||
 ||----------------------------------|----------------------------------------||
 ||--4-4-4---4---4-4-4-x-x-x-x-------|----------------------------------------||
 ||o-5-5-5---5---5-5-5-x-x-x-x-7-7---|--9--9-9---9----9--9-9---x-x--x-14-14\-o||
 ||--5-5-5---5---5-5-5-x-x-x-x-5-5---|--4--5-0---0----4--5-0---x-x--x-14-14\--||

|
| PM| PM| PM| PM| PM| PM PM
| S S S S S S S S S S S S S S S S S S S S S S S S S S S S S S E
 
 ||----------------------------------|----------------------------------------||
 ||o---------------------------------|-------------------------8-8-----------o||
 ||------7-----7-----7-----7-----7---|-----------------------------11-11--9---||
 ||--9-9---9-9---9-9---9-9---9-9---9-|----------------------------------------||
 ||o---------------------------------|-10-10-9-x-x-x-10-10-9-x---------------o||
 ||----------------------------------|--0--0-0-0-0-0--0--0-0-0----------------||

[D/G]S S S S S S S S S S S S S [Em/G]S E [D] S S S S S S S S S S S S S [E5] S E
 
 |---------------------------------|-----------------------------------------|
 |---------------------------------|-----------------------------------------|
 |---------------------------------|-----------------------------------------|
 |-4-4-4---4---4-4-4-x-x-x-x-------|-----------------------------------------|
 |-5-5-5---5---5-5-5-x-x-x-x-7-7---|--9--9-9----9----9--9-9---x-x--x-14-14\--|
 |-5-5-5---5---5-5-5-x-x-x-x-5-5---|--4--5-0----0----4--5-0---x-x--x-14-14\--|

|
| PM| PM| PM| PM| PM| PM
| S S S S S S S S S S S S S S S S S S S E. S S S S S S S S E
 
 |---------------------------------|-----------------------------------------|
 |---------------------------------|--------------------------8-8------------|
 |-----7-----7-----7-----7-----7---|------------------------------11-11--9---|
 |-9-9---9-9---9-9---9-9---9-9---9-|-----------------------------------------|
 |---------------------------------|-10-10-9--------10-10-9------------------|
 |---------------------------------|--0--0-0---------0--0-0------------------|

[D/G]S S S S S S S S S S S S S S [Em/G]E [D] S S S S S S S S S S S S S [E5] S E
 
 |---------------------------------|-------------------------------------------||
 |---------------------------------|-------------------------------------------||
 |---------------------------------|-------------------------------------------||
 |-4-4-4---4---4-4-4-x-x-x-x-------|-------------------------------------------||
 |-5-5-5---5---5-5-5-x-x-x-x-7-7---|--9--9--9---9----9--9--9---x-x--x-14-14\---||
 |-5-5-5---5---5-5-5-x-x-x-x-5-5---|--0--0--0---0----0--0--0---x-x--x-14-14\---||

|
| PM| PM| PM| PM| PM| PM PM PM PM
| S S S S S S S S S S S S S S S S S S S S S S S S S S S S S S S S
 
 |---------------------------------|-------------------------------------------||
 |---------------------------------|---------------------------8-8-------------||
 |-----7-----7-----7-----7-----7---|-12-12-12---x-x-12-12-12-x-----11-11--9--9-||
 |-9-9---9-9---9-9---9-9---9-9---9-|--x--x--x---x-x--x--x--x-x-----------------||
 |---------------------------------|-10-10-10---x-x-10-10-10-------------------||
 |---------------------------------|-------------------------------------------||

Pre-Chorus 2
[B5] [F#m/A]  
 
 PM-----------------------------------------------------------------|

S S S S S S S S S S S S S S S S S S S S S S S S S S S S S S S S
 
 |----------------------------------|------------------------------------|
 |----------------------------------|------------------------------------|
 |----------------------------------|------------------------------------|
 |--4-4-4-4-4-4-4-4-4-4-4-4-4-4-4-4-|---4--4-4-4-4-4-4-4-4-4-4-4-4-4-4---|
 |--2-2-2-2-2-2-2-2-2-2-2-2-2-2-2-2-|---0--0-0-0-0-0-0-0-0-0-0-0-0-0-0-0-|
 |----------------------------------|------------------------------------|

|
| >
| W +W
 
 |----------------------------------|------------------------------------|
 |----------------------------------|------------------------------------|
 |-11-------------------------------|-(11)-------------------------------|
 |----------------------------------|------------------------------------|
 |----------------------------------|------------------------------------|
 |----------------------------------|------------------------------------|

[D/G] [F#5] [E5]  
 
 PM--------------------------| PM| PM| PM| PM|

S S S S S S S S S S S S S S S S S S S S S S S S S S S S S S S S
 
 |---------------------------------|-------------------------------------|
 |---------------------------------|-------------------------------------|
 |---------------------------------|-------------------------------------|
 |-4-4-4-4-4-4-4-4-4-4-4-4-4-4-4---|------------------------------9--9---|
 |-5-5-5-5-5-5-5-5-5-5-5-5-5-5-5---|-4-4-4-4-4-4-4-4-4--4--4-x-x--7--7---|
 |-5-5-5-5-5-5-5-5-5-5-5-5-5-5-5-0-|-4-4-4-4-4-4-4-4-4--4--4-x-x---------|

|
| W H S S S E S S S
 
 |---------------------------------|-------------------12-12-----12-12---|
 |---------------------------------|-------------------10-10-----10-10---|
 |---------------------------------|-------------------11-11-----11-11---|
 |---------------------------------|--------------------9--9------9--9---|
 |---------------------------------|-------------------------------------|
 |---------------------------------|-------------------------------------|

[B5]S S S S S S S S S S S S S S S S [F#m/A]S S S S S S S S S S S S S S S S
 
 |---------------------------------|-----------------------------------|
 |---------------------------------|-----------------------------------|
 |---------------------------------|-----------------------------------|
 |-4-4-4-4-4-4-4-4-4-4-4-4-4-4-4-4-|-4-4--4-4-4-4-4-4--4-4-4-4-4-4-4---|
 |-2-2-2-2-2-2-2-2-2-2-2-2-2-2-2-2-|-0-0--0-0-0-0-0-0--0-0-0-0-0-0-0-0-|
 |---------------------------------|-----------------------------------|

|
| PM| PM| PM| PM| PM
| S S S S S S S S S S S S S S S S S S S S S S S S S S S S S S S S
 
 |---5-----------5-----------5-----|-----10-----9-----10-----9---------|
 |-----3-0-5-0-----3-0-5-0-----3-0-|-5-7----7-7---7-7----7-7---7-7-7-7-|
 |-------------4-----------4-------|-----------------------------------|
 |---------------------------------|-----------------------------------|
 |---------------------------------|-----------------------------------|
 |---------------------------------|-----------------------------------|

[D/G]S S S S S S S S S S S S S S S S
 
 |------------------------------------------------|
 |------------------------------------------------|
 |------------------------------------------------|
 |-4--4--4--4--4--4--4--4--4--4--4--4--4--4--4----|
 |-5--5--5--5--5--5--5--5--5--5--5--5--5--5--5----|
 |-5--5--5--5--5--5--5--5--5--5--5--5--5--5--5--0-|

|
| PM| PM| PM| PM|
| S S S S S S S S S S S S S S S S
 
 |------14-------12-------10-------12-------14----|
 |-7-10----10-10----10-10----10-10----10-10----10-|
 |------------------------------------------------|
 |------------------------------------------------|
 |------------------------------------------------|
 |------------------------------------------------|

[F#5] PM| PM| PM| PM|[E5]
S S S S S S S S S S S S S S S S
 
 |---------------------------------------------||
 |---------------------------------------------||
 |---------------------------------------------||
 |--------------------------------------9--9---||
 |--4--4--4--4--4--4--4--4-4--4--4-x-x--7--7-0-||
 |--4--4--4--4--4--4--4--4-4--4--4-x-x---------||

|
| S S S S S S S S S S S E S S S
 
 |----12-------10-------12---12-12-----12-12---||
 |-10----10-10----10-10------10-10-----10-10---||
 |---------------------------11-11-----11-11---||
 |----------------------------9--9------9--9---||
 |---------------------------------------------||
 |---------------------------------------------||

Chorus 2
[B5] S S S S S S S S S S S S S S S S
 
 |-------------------------------------------------|
 |-------------------------------------------------|
 |-11-11-11-11-11-11-11-11-11-11-11-11-11-11-11-11-|
 |--9--9--9--9--9--9--9--9--9--9--9--9--9--9--9--9-|
 |--9--9--9--9--9--9--9--9--9--9--9--9--9--9--9--9-|
 |--9--9--9--9--9--9--9--9--9--9--9--9--9--9--9--9-|

|
| S S S S S S S S S S S S S S S S
 
 |-------------------------------------------------|
 |-------------------------------------------------|
 |-11-11-11-11-11-11-11-11-11-11-11-11-11-11-11-11-|
 |--9--9--9--9--9--9--9--9--9--9--9--9--9--9--9--9-|
 |--9--9--9--9--9--9--9--9--9--9--9--9--9--9--9--9-|
 |--9--9--9--9--9--9--9--9--9--9--9--9--9--9--9--9-|

[D5] S S S S S S S S S S S S S S S S
 
 |------------------------------------------------|
 |------------------------------------------------|
 |------------------------------------------------|
 |-14-14-14-14-14-14-14-14-14-14-14-14-14-14-14---|
 |-12-12-12-12-12-12-12-12-12-12-12-12-12-12-12---|
 |-12-12-12-12-12-12-12-12-12-12-12-12-12-12-12-0-|

|
| S S S S S S S S S S S S S S S S
 
 |------------------------------------------------|
 |------------------------------------------------|
 |------------------------------------------------|
 |-14-14-14-14-14-14-14-14-14-14-14-14-14-14-14---|
 |-12-12-12-12-12-12-12-12-12-12-12-12-12-12-12---|
 |-12-12-12-12-12-12-12-12-12-12-12-12-12-12-12-0-|

[Gsus2] [F#5] PM| PM| PM PM|
S S S S S S S S S S S S S S S S S S S S S S S S S S S S S S S S
 
 |---------------------------------|---------------------------------|
 |---------------------------------|---------------------------------|
 |---------------------------------|---------------------------------|
 |-7-7-7-7-7-7-7-7-7-7-7-7-7-7-7---|---------------------------------|
 |-5-5-5-5-5-5-5-5-5-5-5-5-5-5-5---|-0-0-0-4-4-4-5-4-4-7-7-7-7-9-9---|
 |-5-5-5-5-5-5-5-5-5-5-5-5-5-5-5-0-|-0-0-0-4-4-4-5-4-4-7-7-7-7-9-9-0-|

|
| S S S S S S S S S S S S S S S S S S S S S S S S S S S S S S S S
 
 |---------------------------------|---------------------------------|
 |---------------------------------|---------------------------------|
 |---------------------------------|---------------------------------|
 |-7-7-7-7-7-7-7-7-7-7-7-7-7-7-7---|---------------------------------|
 |-5-5-5-5-5-5-5-5-5-5-5-5-5-5-5---|-0-x-x-4-x-x-5-4-x-7-7-x-x-9-9---|
 |-5-5-5-5-5-5-5-5-5-5-5-5-5-5-5-0-|-0-x-x-4-x-x-5-4-x-7-7-x-x-9-9---|

[B5] S S S S S S S S S S S S S S S S
 
 |-------------------------------------------------|
 |-------------------------------------------------|
 |-11-11-11-11-11-11-11-11-11-11-11-11-11-11-11-11-|
 |--9--9--9--9--9--9--9--9--9--9--9--9--9--9--9--9-|
 |--9--9--9--9--9--9--9--9--9--9--9--9--9--9--9--9-|
 |--9--9--9--9--9--9--9--9--9--9--9--9--9--9--9--9-|

|
| S S S S S S S S S S S S S S S S
 
 |-----5-----------------5-----------------5-------|
 |--------3--0--5--0--------3--0--5--0--------3--0-|
 |--------------------4-----------------4----------|
 |-------------------------------------------------|
 |-------------------------------------------------|
 |-------------------------------------------------|

[D5] S S S S S S S S S S S S S S S S
 
 |------------------------------------------------|
 |------------------------------------------------|
 |------------------------------------------------|
 |-14-14-14-14-14-14-14-14-14-14-14-14-14-14-14---|
 |-12-12-12-12-12-12-12-12-12-12-12-12-12-12-12---|
 |-12-12-12-12-12-12-12-12-12-12-12-12-12-12-12-0-|

|
| PM| PM| PM| PM| PM
| S S S S S S S S S S S S S S S S
 
 |-------10--------9-------10--------9------------|
 |--5--7-----7--7-----7--7-----7--7-----7--7--7-7-|
 |------------------------------------------------|
 |------------------------------------------------|
 |------------------------------------------------|
 |------------------------------------------------|

[Gsus2]S S S S S S S S S S S S S S S S
 
 |------------------------------------------------|
 |------------------------------------------------|
 |------------------------------------------------|
 |-7--7--7--7--7--7--7--7--7--7--7--7--7--7--7----|
 |-5--5--5--5--5--5--5--5--5--5--5--5--5--5--5----|
 |-5--5--5--5--5--5--5--5--5--5--5--5--5--5--5--0-|

|
| PM| PM| PM| PM|
| S S S S S S S S S S S S S S S S
 
 |------14-------12-------10-------12-------14----|
 |-7-10----10-10----10-10----10-10----10-10----10-|
 |------------------------------------------------|
 |------------------------------------------------|
 |------------------------------------------------|
 |------------------------------------------------|

[F#5] PM| PM| PM PM|
S S S S S S S S S S S S S S S S
 
 |-------------------------------------------------||
 |-------------------------------------------------||
 |-------------------------------------------------||
 |-------------------------------------------------||
 |--0--0--0--4--4--4--5--4--4--7--7--7--7--9--9----||
 |--0--0--0--4--4--4--5--4--4--7--7--7--7--9--9--0-||

|
| S S S S S S S S S S S S S S S S
 
 |----12-------10-------12-------14-------12-------||
 |-10----10-10----10-10----10-10----10-10----10-10-||
 |-------------------------------------------------||
 |-------------------------------------------------||
 |-------------------------------------------------||
 |-------------------------------------------------||

Breakdown
[D/F#]Gtr I[F#5]
S S S S E S S S S E S S S S S S S S E S S S S E S S S S
 
 |-10-10-10-10---10-10-10-10---10-10-10-10-|--9--9-9-9---9-9-9-9---9-9-9-x--|
 |--7--7--7--7----7--7--7--7----7--7--7--7-|--7--7-7-7---7-7-7-7---7-7-7-x--|
 |-----------------------------------------|--------------------------------|
 |-----------------------------------------|--------------------------------|
 |-----------------------------------------|--------------------------------|
 |-----------------------------------------|--------------------------------|

|
| >
| ~~ ~~~
| W +W
 
 |-----------------------------------------|--------------------------------|
 |--7--------------------------------------|-(7)----------------------------|
 |-----------------------------------------|--------------------------------|
 |-----------------------------------------|--------------------------------|
 |--0--------------------------------------|-(0)----------------------------|
 |--0--------------------------------------|-(0)----------------------------|

W +W
[Esus2]S S S S S S S S S S S S S S E [C#m] S S S S S S S S S S S S S S E
 
 |-------------------------------|-----------------------------------|
 |-----7---7-------7---7---------|-----------------------------------|
 |-7h9---9---9-7h9---9---9-7h9---|-------7---7--------7----7---------|
 |-----------------------------9-|--7h=9---9---9-7h9-----9---9-7h9---|
 |-------------------------------|---------------------------------9-|
 |-------------------------------|-----------------------------------|

|
| <
| ~~~~~~~~~~~~~~~~~~~~~~~~~~~~~~~~~~~~~~~~~~~~~~~~~~~~~~
| W +H +H
 
 |-------------------------------|-----------------------------------|
 |-7-----------------------------|-(7)---------------(7)-------------|
 |-------------------------------|-----------------------------------|
 |-------------------------------|-----------------------------------|
 |-------------------------------|-----------------------------------|
 |-------------------------------|-----------------------------------|

[D/F#]Gtr III
S S S S E S S S S E S S S S
 
 ||--10-10-10-10---10-10-10-10---10-10-10-10-|
 ||o--7--7--7--7----7--7--7--7----7--7--7--7-|
 ||------------------------------------------|
 ||------------------------------------------|
 ||o-----------------------------------------|
 ||------------------------------------------|

|
| Gtr IV
 
 | PM----------

| S S S S E S S S S E S S S S
 
 ||------------------------------------------|
 ||o-----------------------------------------|
 ||------------------------------------------|
 ||------------------------------------------|
 ||o--9--9--9--9----9--9--9--9----9--9--9--9-|
 ||---9--9--9--9----9--9--9--9----9--9--9--9-|

[F#5] S S S S E S S S S E S S S S
 
 |--9--9--9--9----9--9--9--9----9--9--9--9-|
 |--7--7--7--7----7--7--7--7----7--7--7--7-|
 |-----------------------------------------|
 |-----------------------------------------|
 |-----------------------------------------|
 |-----------------------------------------|

|
 
 |----------| PM------| PM------|

| S S S S E S S S S E S S S S
 
 |-----------------------------------------|
 |-----------------------------------------|
 |-----------------------------------------|
 |-----------------------------------------|
 |-12-12-12-12---12-12-12-12---12-12-12-12-|
 |-12-12-12-12---12-12-12-12---12-12-12-12-|

[Esus2]Gtr I[C#m]
S S S S S S S S S S S S S S E S S S S S S S S S S S S S S E 3x
 
 |-------------------------------|--------------------------------||
 |-----7---7-------7---7---------|-------------------------------o||
 |-7h9---9---9-7h9---9---9-7h9---|-----7---7-------7---7----------||
 |-----------------------------9-|-7h9---9---9-7h9---9---9-7h9----||
 |-------------------------------|-----------------------------9-o||
 |-------------------------------|--------------------------------||

Outro
6[D/G]/8
Gtr III
S S S S E S S S S E S S S S E S S S S S S
 
 ||------------------------|-------------------------|
 ||o-----------------------|-------------------------|
 ||------------------------|-------------------------|
 ||--4-4-4-4---4-4-4-4-----|-4-4-4-4-----4-4-4-4-4---|
 ||o-5-5-5-5---5-5-5-5-----|-5-5-5-5-----5-5-5-5-5---|
 ||--5-5-5-5---5-5-5-5-----|-5-5-5-5-----5-5-5-5-5-0-|

|
| Gtr IV
| S S S S E S S S S S S S S S S S S S S S S S S
 
 ||------------------------|-------------------------|
 ||o-----------------------|-------------------------|
 ||------------------------|-------------------------|
 ||--4-4-4-4---4-4-4-4-x-x-|-4-4-4-4-x-x-4-4-4-4-4---|
 ||o-5-5-5-5---5-5-5-5-x-x-|-5-5-5-5-x-x-5-5-5-5-5---|
 ||--5-5-5-5---5-5-5-5-x-x-|-5-5-5-5-x-x-5-5-5-5-5-0-|

[B5]E E. S E E E [F#m/A] H. 3x
 
 |------------------|-------------------------||
 |------------------|------------------------o||
 |------------------|-------------------------||
 |-4--4--4-4-4----4-|---4---------------------||
 |-2--2--2-2-2----2-|---0--------------------o||
 |------------------|-------------------------||

|
| Q. E S E. E S E. E S E. 3x
 
 |------------------|-------------------------||
 |------------------|------------------------o||
 |---------4-0------|-------------------------||
 |-4-----------4----|------16-----------/19---||
 |-2----------------|-/17-----17\-14-17------o||
 |------------------|-------------------------||

S S S S E S S S S E S S S S E S S S S S S
 
 |-------------------------|-------------------------|
 |-------------------------|-------------------------|
 |-------------------------|-------------------------|
 |-4-4-4-4-----4-4-4-4-----|-4-4-4-4-----4-4-4-4-4---|
 |-5-5-5-5-----5-5-5-5-----|-5-5-5-5-----5-5-5-5-5---|
 |-5-5-5-5-----5-5-5-5-----|-5-5-5-5-----5-5-5-5-5-0-|

|
| S S S S S S S S S S S S S S S S S S S S S S S S
 
 |-------------------------|-------------------------|
 |-------------------------|-------------------------|
 |-------------------------|-------------------------|
 |-4-4-4-4-x-x-4-4-4-4-x-x-|-4-4-4-4-x-x-4-4-4-4-4---|
 |-5-5-5-5-x-x-5-5-5-5-x-x-|-5-5-5-5-x-x-5-5-5-5-5---|
 |-5-5-5-5-x-x-5-5-5-5-x-x-|-5-5-5-5-x-x-5-5-5-5-5-0-|

E E. S E E E H.
 
 |------------------|-------------------------|
 |------------------|-------------------------|
 |------------------|-------------------------|
 |-4--4--4-4-4----4-|---4---------------------|
 |-2--2--2-2-2----2-|---0---------------------|
 |------------------|-------------------------|

|
| Q. E S E. E S E. E E S S
 
 |------------------|-------------------------|
 |------------------|-------------------------|
 |---------4-0------|-------------------------|
 |-4-----------4----|------16-----16----16-19-|
 |-2----------------|-/17-----17-----17-------|
 |------------------|-------------------------|

[Gsus2]Gtrs III, IV[F#m]
E S S S S E S S S S E S S S S E S S S S
 
 ||----------------------|---------------------|
 ||o---------------------|---------------------|
 ||----------------------|---------------------|
 ||--7-7-7-7-7-7-7-7-7-7-|-7-7-7-7-7-7-7-7-7---|
 ||o-5-5-5-5-5-5-5-5-5-5-|-4-4-4-4-4-4-4-4-4---|
 ||--5-5-5-5-5-5-5-5-5-5-|-4-4-4-4-4-4-4-4-4-0-|

[G5F#D5G5F#D5G5F#D5G5F#D5]S S S S S S S S S S S S [G5F#D5G5F#D5F#A5G5A5G5A5]S S S S S S S S S S S S
 
 |-------------------------|--------------------------||
 |-------------------------|-------------------------o||
 |-------------------------|--------------------------||
 |-------------------------|--------------------------||
 |-5p4-0-5p4-0-5p4-0-5p4-0-|-5p4-0-5p4-0-4h7-5h7-5h7-o||
 |-5p4-0-5p4-0-5p4-0-5p4-0-|-5p4-0-5p4-0-4h7-5h7-5h7--||

|
| Gtr IV
| S S S S S S S S S S S S S S S S S S S S S S S S
 
 |-------------------------|--------------------------||
 |-------------------------|-------------------------o||
 |-------------------------|--------------------------||
 |-------------------------|--------------------------||
 |-5p4-0-0---0-5p4-0-0---0-|-5p4-0-0---0-4h7-5h7-5h7-o||
 |-5p4-0-0---0-5p4-0-0---0-|-5p4-0-0---0-4h7-5h7-5h7--||

[Gsus2]Gtrs III, IV[F#m]
E S S S S E S S S S E S S S S E S S S S 3x
 
 ||----------------------|----------------------||
 ||o---------------------|---------------------o||
 ||----------------------|----------------------||
 ||--7-7-7-7-7-7-7-7-7-7-|-7-7-7-7-7-7-7-7-7-7--||
 ||o-5-5-5-5-5-5-5-5-5-5-|-4-4-4-4-4-4-4-4-4-4-o||
 ||--5-5-5-5-5-5-5-5-5-5-|-4-4-4-4-4-4-4-4-4-4--||

[G5F#D5G5F#D5G5F#D5G5F#D5]S S S S S S S S S S S S [G5F#D5G5F#D5F#A5G5A5G5A5]S S S S S S S S S S S S 4x [G5F#D5]S S S S H
 
 ||--------------------------|--------------------------||--------------*|
 ||o-------------------------|-------------------------o||--------------*|
 ||--------------------------|--------------------------||--------------*|
 ||--------------------------|--------------------------||--------------*|
 ||o-5p4-0-5p4-0-5p4-0-5p4-0-|-5p4-0-5p4-0-4h7-5h7-5h7-o||-5p4-0-0------*|
 ||--5p4-0-5p4-0-5p4-0-5p4-0-|-5p4-0-5p4-0-4h7-5h7-5h7--||-5p4-0-0------*|

|
| Gtr IV
| S S S S S S S S S S S S S S S S S S S S S S S S 4x S S S S H
 
 ||--------------------------|--------------------------||--------------*|
 ||o-------------------------|-------------------------o||--------------*|
 ||--------------------------|--------------------------||--------------*|
 ||--------------------------|--------------------------||--------------*|
 ||o-5p4-0-0---0-5p4-0-0---0-|-5p4-0-0---0-4h7-5h7-5h7-o||-5p4-0-0------*|
 ||--5p4-0-0---0-5p4-0-0---0-|-5p4-0-0---0-4h7-5h7-5h7--||-5p4-0-0------*|


Important: The song above is NOT stored on the Chordie server. The original song is hosted at www.guitaretab.com. Chordie works as a search engine and provides on-the-fly formatting. Chordie does not index songs against artists'/composers' will. To remove this song please click here.

Text color:
Chord color:
Chord grids: 
Font size:    
Page size: 

A5 B5 Bb5 C#m C5 D D/F# D/G D5 E E5 Esus2 F#5 F#m F#m/A G5 Gsus2
Rate #1 of 3 versions

Login - add to songbook

SHARE PAGE  



You need to log in to post comments