Guitar Tabs, Chords and Lyrics
Server problems seems to be fixed. Chordie has been experiencing problems with songs disappearing. These issues now seems to be fixed, but still verifying the fix. If you find anything strange, please email admin@chordie.com.


The Hound (Of Blood and Rank)  Coheed and Cambria

THE HOUND (OF BLOOD AND RANK)
As recorded by Coheed And Cambria
(From the 2007 Album GOOD APOLLO I'M BURNING STAR IV VOLUME TWO: NO WORLD FOR TOMORROW)
Transcribed by Lost.Motel.
Words by Claudio Sanchez Music by Coheed And Cambria
Arranged by Coheed And Cambria
[C5]8 10 10 x x x A5
5 7 7 x x x
Gtr I (E A D G B E) - 'Clean Guitar w/delay and phaser'
Gtr II (E A D G B E) - 'Clean Guitar with Delay'
Gtr III (E A D G B E) - 'Claudio Main'
Gtr IV (E A D G B E) - 'Travis Main'
Gtr V (E A D G B E) - 'Claudio Solo/Backing'
Intro
Q=139
[4/4] Gtr I
e e e e e e e e e e e e e e e e
 
 ||--12-12-12-12-12-12-12-12-|-10-10-10-10-10-10-10-10-|
 ||o-------------------------|-------------------------|
 ||---9--9--9--9--9--9--9--9-|--9--9--9--9--9--9--9--9-|
 ||--------------------------|-------------------------|
 ||o-------------------------|-------------------------|
 ||--------------------------|-------------------------|

e e e e e e e e e e e e e e e e
 
 |-8-8-8-8-8-8-8-8-|-7-7-7-7-7-7-7-7---||
 |-----------------|------------------o||
 |-9-9-9-9-9-9-9-9-|-9-9-9-9-9-9-9-9---||
 |-----------------|-------------------||
 |-----------------|------------------o||
 |-----------------|-------------------||

e e e e e e e e e e e e e e e e
 
 |-12----12----12----12--12------12--12-12-|-10-10-10-10-10-10-10-10-|
 |-----------------------------------------|-------------------------|
 |--9-----9-----9-----9---9-------9---9--9-|--9--9--9--9--9--9--9--9-|
 |-----------------------------------------|-------------------------|
 |-----------------------------------------|-------------------------|
 |-----------------------------------------|-------------------------|

|
| Gtrs II, III
| S S S S S S E +S S +Q. W
 
 |-12-10----12-10--------------------------|-------------------------|
 |-------12-------12-11-(11)s12-(12)-------|-------------------------|
 |-----------------------------------------|-------------------------|
 |-----------------------------------------|-------------------------|
 |-----------------------------------------|-------------------------|
 |-----------------------------------------|-------------------------|

e e e e e e e e e e e e e e e e
 
 |--8-----8-----8-----8---8-------8--8-8-|-7-7-7-7-7-7-7-7--|
 |---------------------------------------|------------------|
 |--9-----9-----9-----9---9-------9--9-9-|-9-9-9-9-9-9-9-9--|
 |---------------------------------------|------------------|
 |---------------------------------------|------------------|
 |---------------------------------------|------------------|

|
| S S S S S S E +S S +Q. W
 
 |-12-10----12-10------------------------|------------------|
 |-------12-------12---------------------|------------------|
 |-------------------11-(11)s12-(12)-----|------------------|
 |---------------------------------------|------------------|
 |---------------------------------------|------------------|
 |---------------------------------------|------------------|

e e e e e e e e e e e e e e e e
 
 |-12----12----12----12--12------12--12-12-|-10----10----10----10--10------10--10-10-|
 |-----------------------------------------|-----------------------------------------|
 |--9-----9-----9-----9---9-------9---9--9-|--9-----9-----9-----9---9-------9---9--9-|
 |-----------------------------------------|-----------------------------------------|
 |-----------------------------------------|-----------------------------------------|
 |-----------------------------------------|-----------------------------------------|

|
| S S S S S S E +S S +Q. S S S S S S E +S S +Q.
 
 |-12-10----12-10--------------------------|-12-10----12-10--------------------------|
 |-------12-------12-11-(11)s12-(12)-------|-------12-------12-10-(10)s11-(11)-------|
 |-----------------------------------------|-----------------------------------------|
 |-----------------------------------------|-----------------------------------------|
 |-----------------------------------------|-----------------------------------------|
 |-----------------------------------------|-----------------------------------------|

e e e e e e e e e e e e e e e e
 
 |--8-----8-----8-----8---8-------8---8-----8-|-7--7-7-7-7-7-7-7---||
 |--------------------------------------------|--------------------||
 |--9-----9-----9-----9---9-------9---9-----9-|-9--9-9-9-9-9-9-9---||
 |--------------------------------------------|--------------------||
 |--------------------------------------------|--------------------||
 |--------------------------------------------|--------------------||

|
| S S S S S S E +S S +E S S E H. Q
 
 |-12-10----12-10-----------------------------|--------------------||
 |-------12-------12--------------------------|--------------------||
 |-------------------11-(11)s12-(12)-11-12-11-|-9------------------||
 |--------------------------------------------|--------------------||
 |--------------------------------------------|--------------------||
 |--------------------------------------------|--------------------||

Verse
e e e e e e e e e e e e e e e e
 
 ||--12-12----12----12-12-12----12----12-|-10-10----10----10-10-10----10----10-|
 ||o-------------------------------------|-------------------------------------|
 ||---9--9-----9-----9--9--9-----9-----9-|--9--9-----9-----9--9--9-----9-----9-|
 ||--------------------------------------|-------------------------------------|
 ||o-------------------------------------|-------------------------------------|
 ||--------------------------------------|-------------------------------------|

|
| Gtr IV
 
 | PM---------------------------| PM---------------------------|

| E E E E E E E E E E E E E E E E
 
 ||--------------------------------------|-------------------------------------|
 ||o-------------------------------------|-------------------------------------|
 ||--------------------------------------|-------------------------------------|
 ||---9--9-----9-----9--9--9-----9-----9-|--7--7-----7-----7--7--7-----7-----7-|
 ||o--7--7-----7-----7--7--7-----7-----7-|--5--5-----5-----5--5--5-----5-----5-|
 ||--------------------------------------|-------------------------------------|

|
| Gtr II
| > >
 
 | |-------------6:8-------------| |-------------6:8-------------|

| e e e e e e e e e e e e
 
 ||--15----15----15----15----15----15----|-14----14----14----14----14----14----|
 ||o-------------------------------------|-------------------------------------|
 ||--12----12----12----12----12----12----|-11----11----11----11----11----11----|
 ||--------------------------------------|-------------------------------------|
 ||o-------------------------------------|-------------------------------------|
 ||--------------------------------------|-------------------------------------|

e e e e e e e e e e e e e e e e 4x
 
 |--8-8----8----8--8-8----8----8-|---7--------7-------7---7--7--7--7---7---||
 |-------------------------------|----------------------------------------o||
 |--9-9----9----9--9-9----9----9-|---9--------9-------9---9--9--9--9---9---||
 |-------------------------------|-----------------------------------------||
 |-------------------------------|----------------------------------------o||
 |-------------------------------|-----------------------------------------||

|
 
 | PM---------------------------|

| E E E E E E E E E E E E E E E E 4x
 
 |-------------------------------|-----------------------------------------||
 |-------------------------------|----------------------------------------o||
 |-------------------------------|-----------------------------------------||
 |-------------------------------|-----------10------10--10-10-10-10-(10)--||
 |--7-7----7----7--7-7----7----7-|--(7)------10------10--10-10-10-10-(10)-o||
 |--5-5----5----5--5-5----5----5-|--(5)-------8-------8---8--8--8--8--(0)--||

|
| >
 
 | |----------6:8-----------| |-----3------|

| e e e e e e e e e H. 4x
 
 |-------------------------------|-----------------------------------------||
 |-13---13---13---13---13---13---|-(13)-(13)----(13)----------------------o||
 |-------------------------------|-----------------------------------------||
 |-10---10---10---10---10---10---|-(10)-(10)----(10)-----------------------||
 |-------------------------------|----------------------------------------o||
 |-------------------------------|-----------------------------------------||

horus
$
Gtr IV
 
 PM--| PM--| PM--|

S S E E S S E E S S E E E E E E E E E
 
 ||------------------------|-----------------|
 ||o-----------------------|-----------------|
 ||------------------------|-----------------|
 ||------------------------|-----------------|
 ||o-2-2-2---2-2-2---2-2-2-|---7-7-7-7-5-5-5-|
 ||--0-0-0---0-0-0---0-0-0-|---5-5-5-5-3-3-3-|

|
| Gtr III
| E E E E E E E E E E E E E E E E
 
 ||------------------------|-----------------|
 ||o-----------------------|-----------------|
 ||------------------------|-----------------|
 ||----------5-------------|-----------------|
 ||o-5---7-------7---5---7-|---7-7-7-7-5-5-5-|
 ||------------------------|---5-5-5-5-3-3-3-|
 PM--| PM--| PM--|

S S E E S S E E S S E E E E E E E E E
 
 |-----------------------|--------------------||
 |-----------------------|-------------------o||
 |-----------------------|--------------------||
 |-----------------------|--------------------||
 |-2-2-2---2-2-2---2-2-2-|---7-7-7-7-5-5-5---o||
 |-0-0-0---0-0-0---0-0-0-|---5-5-5-5-3-3-3----||

|
| E E E E E E E E E E E E E E E E
 
 |-----------------------|--------------------||
 |-----------------------|-------------------o||
 |-----------------------|--------------------||
 |---------5-------------|--------------------||
 |-5---7-------7---5---7-|---7-7-7-7-5-5-5---o||
 |-----------------------|---5-5-5-5-3-3-3----||

[C5]Gtr V
[E]| [E]| [E]| [E]| [E]| [E]| [E]| [E]| [E]| [E]| [E]| [E]| [E]| [E]| [E]| [E]|
[/] [/] [/] [/] [/] [/] [/] [/] [/] [/] [/] [/] [/] [/] [/] [/] 
[E] [E] [E] [E] [E] [E] [E] [E] [E] [E] [E] [E] [E] [E] [E] [E]  
 
 ||---8-------7------------|---------------------|
 ||o-----8-------8----10-8-|------8--------------|
 ||---------9-------9------|-(9)----9--7-7-9-9-7-|
 ||------------------------|---------------------|
 ||o-----------------------|---------------------|
 ||------------------------|---------------------|

|
| E E E E E E E E E E E E E E E E
 
 ||------------------------|---------------------|
 ||o-----------------------|---------------------|
 ||------------------------|---------------------|
 ||--10-------9------------|-10-----9------------|
 ||o----10-10---10-10--5-7-|-----10---10-5-7-7-5-|
 ||------------------------|---------------------|

To Coda
[A5]  
[E]| [E]| [E]| [E]| [E]| [E]| [E]| [E]| [E]| [E]| [E]| [E]| [E]| [E]| [E]| [E]|
[/] [/] [/] [/] [/] [/] [/] [/] [/] [/] [/] [/] [/] [/] [/] [/] 
E E E E E E E E E E E E E E E E 4x
 
 |--8-------7------------|-----------------------||
 |-----8-------8----10-8-|------8---------------o||
 |--------9-------9------|-(9)----9--7-7-9-9-7---||
 |-----------------------|-----------------------||
 |-----------------------|----------------------o||
 |-----------------------|-----------------------||

|
| E E E E E E E E E E E E E E E E 4x
 
 |-----------------------|-----------------------||
 |-----------------------|----------------------o||
 |-----------------------|-----------------------||
 |-10-------9------------|-10-----9--------------||
 |----10-10---10-10--5-7-|-----10---10-5-7-7-5--o||
 |-----------------------|-----------------------||

Verse
Gtr III
 
 PM-----------------------| PM-----------------------|

[E] [E] [E] [E] [E] [E] [E] [E] [E] [E] [E] [E] [E] [E] [E] [E]  
 
 ||--------------------------------|-------------------------------|
 ||o-------------------------------|-------------------------------|
 ||--------------------------------|-------------------------------|
 ||---9-9----9----9--9-9----9----9-|--7-7----7----7--7-7----7----7-|
 ||o--7-7----7----7--7-7----7----7-|--5-5----5----5--5-5----5----5-|
 ||--------------------------------|-------------------------------|

|
| Gtr II
| > >
 
 | |----------6:8-----------| |----------6:8-----------|

| e e e e e e e e e e e e
 
 ||--15---15---15---15---15---15---|-14---14---14---14---14---14---|
 ||o-------------------------------|-------------------------------|
 ||--12---12---12---12---12---12---|-11---11---11---11---11---11---|
 ||--------------------------------|-------------------------------|
 ||o-------------------------------|-------------------------------|
 ||--------------------------------|-------------------------------|

D.S. al Coda
 
 PM---------------------------|

E E E E E E E E E E E E E E E E 4x
 
 |-------------------------------|-----------------------------------------||
 |-------------------------------|----------------------------------------o||
 |-------------------------------|-----------------------------------------||
 |-------------------------------|-----------10------10--10-10-10-10-(10)--||
 |--7-7----7----7--7-7----7----7-|--(7)------10------10--10-10-10-10-(10)-o||
 |--5-5----5----5--5-5----5----5-|--(5)-------8-------8---8--8--8--8--(0)--||

|
| >
 
 | |----------6:8-----------| |-----3------|

| e e e e e e e e e H. 4x
 
 |-------------------------------|-----------------------------------------||
 |-13---13---13---13---13---13---|-(13)-(13)----(13)----------------------o||
 |-------------------------------|-----------------------------------------||
 |-10---10---10---10---10---10---|-(10)-(10)----(10)-----------------------||
 |-------------------------------|----------------------------------------o||
 |-------------------------------|-----------------------------------------||

Guitar Solo
&
[2/2] Gtr V
~~~
Q. H S S E. E. E Q. +E a
 
 |-----------------------------|-------------15------------------|
 |-15b17-----15b17-------------|-------13-------13------(13)s(0)-|
 |-----------------------16p14-|-16------------------------------|
 |-----------------------------|---------------------------------|
 |-----------------------------|---------------------------------|
 |-----------------------------|---------------------------------|

|
| Gtr IV
 
 | PM--------------| PM-----------------|

| E E E E E E E E E E E E E E E E
 
 |-----------------------------|---------------------------------|
 |-----------------------------|---------------------------------|
 |-----------------------------|---------------------------------|
 |--9----9-9--9----9-9-9--9----|--7--7-----7--7--7--7-7---7------|
 |--7----7-7--7----7-7-7--7----|--5--5-----5--5--5--5-5---5------|
 |-----------------------------|---------------------------------|

~~
 
 |----3----| |-----3------|

Q q q S. S. E. E Q Q Q +E. S Q
 
 |-----------------------------------|------------------------------------------|
 |-----------------------------------|------------------------------------------|
 |-----16---17---16--14----14----14\-|-14-----16----16b17r===(16)----14---------|
 |-----------------------------------|----------------------------------14------|
 |-----------------------------------|------------------------------------------|
 |-----------------------------------|------------------------------------------|

|
 
 | PM--------------------------------|

| E E E E E E E E E E E E E E E E
 
 |-----------------------------------|------------------------------------------|
 |-----------------------------------|------------------------------------------|
 |-----------------------------------|------------------------------------------|
 |-----------------------------------|-----10----10-------10--10--10----10-(10)-|
 |-7-7----7----7--7------7-----7--7--|-(7)-10----10-------10--10--10----10-(10)-|
 |-5-5----5----5--5------5-----5--5--|-(5)--8-----8--------8---8---8-----8--(0)-|
 PM--------| PM--------------------------|
 |--3--| |---3---| |---3---| |---3---| |---3---| |---3---| |-------3-------|

+Q E E E E E E E E E E E E E E E E Q Q. E
 
 |--------------------------------------------|------------------------------------------|
 |--------------------------------------------|------------------------------------------|
 |--------------------------------------------|------------------------------------------|
 |-(14)---12h14-12------12--------------------|------------------------------------------|
 |-------------------14----14---10-12-10---12-|-12-10---12-12-10---12-12b14---10---------|
 |--------------------------------------------|---------------------------------------12-|

|
 
 | PM-------------------------------| PM----------------------------|

| E E E E E E E E E E E E E E E E
 
 |--------------------------------------------|------------------------------------------|
 |--------------------------------------------|------------------------------------------|
 |--------------------------------------------|------------------------------------------|
 |---9--9-----9----9-----9----9-----9----9----|--7----7-----7----7-----7----7-----7-7----|
 |---7--7-----7----7-----7----7-----7----7----|--5----5-----5----5-----5----5-----5-5----|
 |--------------------------------------------|------------------------------------------|

~~
 
 |----3----| |----3----|

Q Q Q Q Q Q Q. E H
 
 |---------------------------------|-------------------------------|
 |---------------------------------|-------------------------------|
 |---------------------------------|-------------------------------|
 |---------------------------------|-------------------------------|
 |-/15---14--------/15---14--------|-/14--------10-----------------|
 |------------15--------------15---|---------------14--------------|

|
 
 | PM----------------------------|

| E E E E E E E E E E E E E E E E
 
 |---------------------------------|-------------------------------|
 |---------------------------------|-------------------------------|
 |---------------------------------|-------------------------------|
 |---------------------------------|------10-10-10-10-10-10-(10)---|
 |---7-7----7----7---7-7----7----7-|--(7)-10-10-10-10-10-10-(10)---|
 |---5-5----5----5---5-5----5----5-|--(5)--8--8--8--8--8--8--(0)---|

~~~~
 
 |----3----| |---3---| |----3----| |----3-----|

Q q q E E H Q Q Q E E H
 
 |------------------------------|----------------------------------|
 |---------------12-------------|----------------------------------|
 |-----11---12------12---12-----|-----11---12---11-----------------|
 |------------------------------|------------------[14]---[14]-----|
 |------------------------------|----------------------------------|
 |------------------------------|----------------------------------|

|
 
 | PM-----------------------| PM---------------------------|

| E E E E E E E E E E E E E E E E
 
 |------------------------------|----------------------------------|
 |------------------------------|----------------------------------|
 |------------------------------|----------------------------------|
 |-9-9----9----9--9----9----9-9-|-7-7----7----7--7------7------7-7-|
 |-7-7----7----7--7----7----7-7-|-5-5----5----5--5------5------5-5-|
 |------------------------------|----------------------------------|
 |----3----| |----3----|

Q Q Q Q Q Q Q. Q Q S S
 
 |------------------------------|----------------------------------|
 |------------------------------|----------------------------------|
 |---------------/9-------------|----------------------------------|
 |-----10---12--------12---10---|-[9]-------------/7\--------------|
 |------------------------------|------------5------------14h=15---|
 |------------------------------|----------------------------------|

|
 
 | PM---------------------------|

| E E E E E E E E E E E E E E E E
 
 |------------------------------|----------------------------------|
 |------------------------------|----------------------------------|
 |------------------------------|----------------------------------|
 |------------------------------|-----10-10-10-10-10--10-(10)------|
 |-7-7----7----7--7-7----7----7-|-(7)-10-10-10-10-10--10-(10)------|
 |-5-5----5----5--5-5----5----5-|-(5)--8--8--8--8--8---8--(0)------|

~~~~~~~~~ ~~ ~~~~
 
 |--3--| |--3--|

S. S. S. S. S S S S S S S S S S E +E e e e E S E S +E
 
 |---------------------------------------------------|------------------------------------|
 |---------------------------------------------------|---------------9b10-----------------|
 |------------------------16h17h19-17p16p14----------|------11h12p11------12p11---12-(12)-|
 |-12h14h==16----17p16h17-------------------17p16p14-|-(14)-------------------------------|
 |---------------------------------------------------|------------------------------------|
 |---------------------------------------------------|------------------------------------|

|
 
 | PM---------------------------------------| PM----------------------|

| E E E E E E E E E E E E E E E E
 
 |---------------------------------------------------|------------------------------------|
 |---------------------------------------------------|------------------------------------|
 |---------------------------------------------------|------------------------------------|
 |--9----9-----9-----9-----9--------9--------9-----9-|---7---7--7--7-7-----7----7------7--|
 |--7----7-----7-----7-----7--------7--------7-----7-|---5---5--5--5-5-----5----5------5--|
 |---------------------------------------------------|------------------------------------|
 |----3----| |---3---| |---3---| |----3----|

Q q q e E E E E E E E E E E E E E E
 
 |--------------------------------------|-----------12-14-12-14-15-14--15--||
 |-----------12h==13------12h13h15------|-13--15---------------------------||
 |-12---14-----------14--------------14-|----------------------------------||
 |--------------------------------------|----------------------------------||
 |--------------------------------------|----------------------------------||
 |--------------------------------------|----------------------------------||

|
 
 | PM----------------------------------|

| E E E E E E E E E E E E E E E E
 
 |--------------------------------------|----------------------------------||
 |--------------------------------------|----------------------------------||
 |--------------------------------------|----------------------------------||
 |--------------------------------------|--------10----10-10-10-10-10-(10)-||
 |--7-7----7----7--7----7-----7----7----|-(7)----10----10-10-10-10-10-(10)-||
 |--5-5----5----5--5----5-----5----5----|-(5)-----8-----8--8--8--8--8--(0)-||

Chorus
[4/4] |-3--|
H +H +E Q E E H
 
 |-17b19============(17)---------|-(17)r-15---15-------------|
 |-------------------------------|---------------17-17-------|
 |-------------------------------|---------------------------|
 |-------------------------------|---------------------------|
 |-------------------------------|---------------------------|
 |-------------------------------|---------------------------|

|
| Gtr IV
| E E E E E E E E E E E E E E E E
 
 |-------------------------------|---------------------------|
 |-------------------------------|---------------------------|
 |-------------------------------|---------------------------|
 |--------------5----------------|---------------------------|
 |--5-------7---------7----5---7-|----------7--7--7--7-5-5-5-|
 |-------------------------------|----------5--5--5--5-3-3-3-|

|
| Gtr III
 
 | PM------| PM--| PM--|

| S S E E S S E E S S E E E E E E E E E
 
 |-------------------------------|---------------------------|
 |-------------------------------|---------------------------|
 |-------------------------------|---------------------------|
 |-------------------------------|---------------------------|
 |--2-----2-2---2-2---2----2-2-2-|----------7--7--7--7-5-5-5-|
 |--0-----0-0---0-0---0----0-0-0-|----------5--5--5--5-3-3-3-|

+W W
 
 |--------------------------|-----------------|
 |-(17)---------------------|-----------------|
 |--------------------------|-----------------|
 |--------------------------|-----------------|
 |--------------------------|-----------------|
 |--------------------------|-----------------|

|
| E E E E E E E E E E E E E E E E
 
 |--------------------------|-----------------|
 |--------------------------|-----------------|
 |--------------------------|-----------------|
 |------------5-------------|-----------------|
 |---5----7-------7---5---7-|---7-7-7-7-5-5-5-|
 |--------------------------|---5-5-5-5-3-3-3-|

|
 
 | PM---| PM--| PM--|

| S S E E S S E E S S E E E E E E E E E
 
 |--------------------------|-----------------|
 |--------------------------|-----------------|
 |--------------------------|-----------------|
 |--------------------------|-----------------|
 |---2--2-2---2-2-2---2-2-2-|---7-7-7-7-5-5-5-|
 |---0--0-0---0-0-0---0-0-0-|---5-5-5-5-3-3-3-|

Gtr IV
 
 PM--| PM--| PM--|

S S E E S S E E S S E E E E E E E E E
 
 |-----------------------|-----------------|
 |-----------------------|-----------------|
 |-----------------------|-----------------|
 |-----------------------|-----------------|
 |-2-2-2---2-2-2---2-2-2-|---7-7-7-7-5-5-5-|
 |-0-0-0---0-0-0---0-0-0-|---5-5-5-5-3-3-3-|

|
| Gtr III
| E E E E E E E E E E E E E E E E
 
 |-----------------------|-----------------|
 |-----------------------|-----------------|
 |-----------------------|-----------------|
 |---------5-------------|-----------------|
 |-5---7-------7---5---7-|---7-7-7-7-5-5-5-|
 |-----------------------|---5-5-5-5-3-3-3-|
 PM--| PM--| PM--|

S S E E S S E E S S E E E E E E E E E
 
 |-----------------------|-----------------|
 |-----------------------|-----------------|
 |-----------------------|-----------------|
 |-----------------------|-----------------|
 |-2-2-2---2-2-2---2-2-2-|---7-7-7-7-5-5-5-|
 |-0-0-0---0-0-0---0-0-0-|---5-5-5-5-3-3-3-|

|
| E E E E E E E E E E E E E E E E
 
 |-----------------------|-----------------|
 |-----------------------|-----------------|
 |-----------------------|-----------------|
 |---------5-------------|-----------------|
 |-5---7-------7---5---7-|---7-7-7-7-5-5-5-|
 |-----------------------|---5-5-5-5-3-3-3-|

[C5]Gtr V
[E]| [E]| [E]| [E]| [E]| [E]| [E]| [E]| [E]| [E]| [E]| [E]| [E]| [E]| [E]| [E]|
[/] [/] [/] [/] [/] [/] [/] [/] [/] [/] [/] [/] [/] [/] [/] [/] 
[E] [E] [E] [E] [E] [E] [E] [E] [E] [E] [E] [E] [E] [E] [E] [E]  
 
 ||---8-------7------------|---------------------|
 ||o-----8-------8----10-8-|------8--------------|
 ||---------9-------9------|-(9)----9--7-7-9-9-7-|
 ||------------------------|---------------------|
 ||o-----------------------|---------------------|
 ||------------------------|---------------------|

|
| E E E E E E E E E E E E E E E E
 
 ||------------------------|---------------------|
 ||o-----------------------|---------------------|
 ||------------------------|---------------------|
 ||--10-------9------------|-10-----9------------|
 ||o----10-10---10-10--5-7-|-----10---10-5-7-7-5-|
 ||------------------------|---------------------|

[A5]  
[E]| [E]| [E]| [E]| [E]| [E]| [E]| [E]| [E]| [E]| [E]| [E]| [E]| [E]| [E]| [E]|
[/] [/] [/] [/] [/] [/] [/] [/] [/] [/] [/] [/] [/] [/] [/] [/] 
~~~
E E E E E E E E E E E E E E Q
 
 |--8-------7------------|------------------------|
 |-----8-------8----10-8-|------8-----------------|
 |--------9-------9------|-(9)----9--7-7-9--9-----|
 |-----------------------|------------------------|
 |-----------------------|------------------------|
 |-----------------------|------------------------|

|
| ~~~
| E E E E E E E E E E E E E E Q
 
 |-----------------------|------------------------|
 |-----------------------|------------------------|
 |-----------------------|------------------------|
 |-10-------9------------|-10-----9---------------|
 |----10-10---10-10--5-7-|-----10---10-5-7-[7]----|
 |-----------------------|------------------------|

[C5]  
[E]| [E]| [E]| [E]| [E]| [E]| [E]| [E]| [E]| [E]| [E]| [E]| [E]| [E]| [E]| [E]|
[/] [/] [/] [/] [/] [/] [/] [/] [/] [/] [/] [/] [/] [/] [/] [/] 
[E] [E] [E] [E] [E] [E] [E] [E] [E] [E] [E] [E] [E] [E] [E] [E]  
 
 |--8-------7------------|---------------------|
 |-----8-------8----10-8-|------8--------------|
 |--------9-------9------|-(9)----9--7-7-9-9-7-|
 |-----------------------|---------------------|
 |-----------------------|---------------------|
 |-----------------------|---------------------|

|
| E E E E E E E E E E E E E E E E
 
 |-----------------------|---------------------|
 |-----------------------|---------------------|
 |-----------------------|---------------------|
 |-10-------9------------|-10-----9------------|
 |----10-10---10-10--5-7-|-----10---10-5-7-7-5-|
 |-----------------------|---------------------|

[A5]  
[E]| [E]| [E]| [E]| [E]| [E]| [E]| [E]| [E]| [E]| [E]| [E]| [E]| [E]| [E]| [E]|
[/] [/] [/] [/] [/] [/] [/] [/] [/] [/] [/] [/] [/] [/] [/] [/] 
~
E E E E E E E E E E E E E E Q
 
 |--8-------7------------|----------------------||
 |-----8-------8----10-8-|------8--------------o||
 |--------9-------9------|-(9)----9--7-7-9-9----||
 |-----------------------|----------------------||
 |-----------------------|---------------------o||
 |-----------------------|----------------------||

|
| ~
| E E E E E E E E E E E E E E Q
 
 |-----------------------|----------------------||
 |-----------------------|---------------------o||
 |-----------------------|----------------------||
 |-10-------9------------|-10-----9-------------||
 |----10-10---10-10--5-7-|-----10---10-5-7-7---o||
 |-----------------------|----------------------||

Outro
[C5]  
[E]| [E]| [E]| [E]| [E]| [E]| [E]| [E]| [E]| [E]| [E]| [E]| [E]| [E]| [E]| [E]|
/ / / / / / / / x / / / / / / /
[E] [E] [E] [E] [E] [E] [E] [E] [E] [E] [E] [E] [E] [E] [E] [E]  
 
 ||---8-------7------------|---------------------|
 ||o-----8-------8----10-8-|------8--------------|
 ||---------9-------9------|-(9)----9--7-7-9-9-7-|
 ||------------------------|---------------------|
 ||o-----------------------|---------------------|
 ||------------------------|---------------------|

|
| E E E E E E E E E E E E E E E E
 
 ||------------------------|---------------------|
 ||o-----------------------|---------------------|
 ||------------------------|---------------------|
 ||--10-------9------------|-10-----9------------|
 ||o----10-10---10-10--5-7-|-----10---10-5-7-7-5-|
 ||------------------------|---------------------|

[A5]  
[E]| [E]| [E]| [E]| [E]| [E]| [E]| [E]| [E]| [E]| [E]| [E]| [E]| [E]| [E]| [E]|
/ / / / / / / / x / / / / / / /
~
E E E E E E E E E E E E E E Q 5x
 
 |--8-------7------------|-----------------------||
 |-----8-------8----10-8-|------8---------------o||
 |--------9-------9------|-(9)----9--7-7-9-9-----||
 |-----------------------|-----------------------||
 |-----------------------|----------------------o||
 |-----------------------|-----------------------||

|
| ~
| E E E E E E E E E E E E E E Q 5x
 
 |-----------------------|-----------------------||
 |-----------------------|----------------------o||
 |-----------------------|-----------------------||
 |-10-------9------------|-10-----9--------------||
 |----10-10---10-10--5-7-|-----10---10-5-7-7----o||
 |-----------------------|-----------------------||

[C5] E E E E E E E E E E E E E E E E [A5] Q H. W
| | | | | | | | | | | | | | | | |
[/] [/] [/] [/] [/] [/] [/] [/] [/] [/] [/] [/] [/] [/] [/] [/] [/] 
E E E E E E E E E E E E E E E E Q H. W
 
 |--8-------7------------|---------------------|--8\----------|------*|
 |-----8-------8----10-8-|------8--------------|--------------|------*|
 |--------9-------9------|-(9)----9--7-7-9-9-7-|--------------|------*|
 |-----------------------|---------------------|--------------|------*|
 |-----------------------|---------------------|--------------|------*|
 |-----------------------|---------------------|--------------|------*|

|
| E E E E E E E E E E E E E E E E Q H. W
 
 |-----------------------|---------------------|--------------|------*|
 |-----------------------|---------------------|--------------|------*|
 |-----------------------|---------------------|--------------|------*|
 |-10-------9------------|-10-----9------------|-10\----------|------*|
 |----10-10---10-10--5-7-|-----10---10-5-7-7-5-|--------------|------*|
 |-----------------------|---------------------|--------------|------*|
 --------------------------------------------------------------------------------

Duration Legend
 
 ---------------
 W - whole; H - half; Q - quarter; E - 8th; S - 16th; T - 32nd; X - 64th; a - acciaccatura

+ - note tied to previous; . - note dotted; .. - note double dotted
Uncapitalized letters represent notes that are staccato (1/2 duration)
Irregular groupings are notated above the duration line
Duration letters will always appear directly above the note/fret number it represents the
duration for. Duration letters with no fret number below them represent rests. Multi-
bar rests are notated in the form Wxn, where n is the number of bars to rest for. Low
melody durations appear below the staff
Tablature Legend
 
 ----------------

h - hammer-on
p - pull-off
b - bend
pb - pre-bend
r - bend release (if no number after the r, then release immediately)
/\ - slide into or out of (from/to "nowhere")
s - legato slide
S - shift slide
- natural harmonic
(n) - artificial harmonic
n(n) - tapped harmonic
~ - vibrato
tr - trill
T - tap
TP - trem. picking
PM - palm muting
\n/ - tremolo bar dip; n = amount to dip
\n - tremolo bar down
n/ - tremolo bar up
/n\ - tremolo bar inverted dip
= - hold bend; also acts as connecting device for hammers/pulls
- volume swell (louder/softer)
x - on rhythm slash represents muted slash
o - on rhythm slash represents single note slash
Misc Legend
 
 -----------

| - bar
|| - double bar
||o - repeat start
o|| - repeat end
*| - double bar (ending)
: - bar (freetime)
$ - Segno
& - Coda
Tempo markers - = BPM(8/16=s8/s16), where s8 = swing 8ths, s16 = swing 16ths

Important: The song above is NOT stored on the Chordie server. The original song is hosted at www.guitaretab.com. Chordie works as a search engine and provides on-the-fly formatting. Chordie does not index songs against artists'/composers' will. To remove this song please click here.

Text color:
Chord color:
Chord grids: 
Font size:    
Page size: 

A5 C5 E
Rate #1 of 3 versions

Login - add to songbook

SHARE PAGE  




You need to log in to post comments