Guitar Tabs, Chords and Lyrics
Major upgrade!! After one year development the new version of Chordie is now online! Please give feedback.


Justice in Murder  Coheed and Cambria

Song: Justice In Murder
Album: No World For Tomorrow
Year: 2007
Label: Columbia Records
Guitars: Claudio Sanchez
Travis Stever
Tuning: EADGBE (Standard)
Intro
Guitar 1
 
 E----------------------------------------------------|
 B----------------------------------------------------|
 G------9-7-------------------------------------------|
 D-7-10-----9-9-10-----10-9-999-9-10-9-7--------------|
 A-----------------888--------------------10-8-7-8-7/-|
 E----------------------------------------------------|

... ...
 
 E------------------------------------------------------|
 B------------------------------------------------------|
 G------9-7---------------------------------------------|
 D-7-10-----9-9-10--------------------------------------|
 A-----------------888-10-8-7/-5-5-5-0--8-7-5-3-5-3-----|
 E--------------------------------------------------3-5-|

...
Guitar 2 - tough to hear
[E-]  
[B-]  
[G-]  
[D-]  
[A-]  
[E-]  
Guitar 3
 
 E---------------------------------|
 B---------------------------------|
 G---------------------------------|
 D-7~--------------7~--------------|
 A-7~--------------7~--------------|
 E-5~--------------5~--------------|

Verse
Guitar 1 - note: single notes on the D string should be slightly muted
 
 E---------------------------------------------------------|
 B---------------------------------------------------------|
 G---------------------------------------------------------|
 D-7----10---9---7---5-5-7---5-5-7--3----------------------|
 A-7--0----0---0---0-------0--------3--8-7-5-3/5/3-2/3/2---|
 E-5--------------------------------1----------------------|

. . . . .
Guitar 2
 
 E----------------------------------7------------|
 B--------------------------------8---8-----10br-|
 G----------------------------7-9-------9-7------|
 D------7-7---------7-7--------------------------|
 A-----------------------------------------------|
 E----------0-5-7-5------------------------------|

. . . .
Guitar 1
 
 E-------------------------------------|
 B-------------------------------------|
 G----------------------0-0-------0-0--|
 D-777777-1010-55-----2---------2------|
 A-777777-1010-55-2h3-------2h3--------|
 E-555555-8 8 -33----------------------|

Guitar 2
 
 E----------------------------------------|
 B----------------------------------------|
 G-----0-4-0-0-5~-4~---------0-0------0-0-|
 D-0h2--------------5/-----2--------2-----|
 A---------------------2h3------2h3-------|
 E----------------------------------------|

Pre Chorus
Guitar 1
 
 E-------------------------------------------|
 B-------------------------------------------|
 G-------0-0-------0-0--------0-0--------0-0-|
 D-----2---------2----------2----------2-----|
 A-2h3-------2h3-------2h3--------2h3--------|
 E-------------------------------------------|

Guitar 2
 
 E--------------------------------------------------------------|
 B--------------------------------------------------------------|
 G--------------------------------------------------------------|
 D-----2--------------2---------------2--------------2----------|
 A-2h3------------2h3------------2h3------------2h3-------------|
 E------1-111-111------1-111-111-------1-111-111------1-111-111-|

. ... ... . ... ... . ... ... . ... ...
Chorus - What they play is hard to hear so mess with these chords for now
 
 E------------------|
 B------------------|
 G------------------|
 D-7--10--5--3------|
 A-7--10--5--3------|
 E-5--8 --3--1------|

[Am] [C] [G] [F]  
Key
h = hammer on
p = pull off
/ = slide
. = palm mute
br= bend and release

Important: The song above is NOT stored on the Chordie server. The original song is hosted at www.guitaretab.com. Chordie works as a search engine and provides on-the-fly formatting. Chordie does not index songs against artists'/composers' will. To remove this song please click here.

Text color:
Chord color:
Chord grids: 
Font size:    
Page size: 

Am C F G
Rate #1 of 2 versions

Login - add to songbook

SHARE PAGE  




You need to log in to post comments