Guitar Tabs, Chords and Lyrics
Major upgrade!! After one year development the new version of Chordie is now online! Please give feedback.


When Heaven's Not Far Away  Cold

Intro
Guitar 1
 
 D------------------------------|
 A------------------------------|
 F------------------------------|
 C--------8----8--------8----8--|
 G--101010-1010-10101010-1010---|
 C------------------------------|

Pre-Verse
Both Guitars (palm muted)
 
 D-----------------------------------------|
 A-----------------------------------------|
 F-----------------------------------------|
 C-----------------------------------------|
 G-------------1--1----0--0----0--10-------|
 C--55585580111-11-1000-00-0333-33---------| x2

Verse
Guitar 1 (Between sentences)
D--10~~
A--11~~
F--12~~
C--12~~
G--10~~
 
 C--------

Guitar 2 (on third and fourth lines)
 
 D---------------------------------------------|
 A---------------------------------------------|
 F---------------------------------------------|
 C---------------------------------------------|
 G-----------------1---1-----0--0----0--10-----|
 C--55585580111--11-1000-00-333-33-------------| x2

Then on "change"
Both guitars
 
 D-----------|
 A-----------|
 F-------5~--|
 C--3-3------|
 G--3-3------|
 C--3-3------|

Chorus
Part 1
Both guitars (don't know strumming)
 
 D---------------------------------------|
 A---------------------------------------|
 F---------------------------------------|
 C--6---8---10---13---6---8---10---1-----|
 G--6---8---10---13---6---8---10---1-----|
 C--6---8---10---13---6---8---10---1-----|

or
 
 D------------------------------------|
 A------------------------------------|
 F------3---5---8-------3---5---------|
 C--6---3---5---8---6---3---5---1-----|
 G--6---1---3---6---6---1---3---1-----|
 C--6---------------6-----------1-----|

Part 2
Play the first half (first 4 chords) of Part 1 then
 
 D--------------|
 A--------------|
 F--------------|
 C--6---8---10--|
 G--6---8---10--|
 C--6---8---10--|

Bridge
Part 1 (all palm muted)
 
 D----------------------------------|
 A----------------------------------|
 F----------------------------------|
 C--55555555------------------------|

G--33333333000000001111111133333333
 
 C----------000000001111111133333333 x2

Part 2 (let ring)
 
 D----------------------------------------------------|
 A----------------------------------------------------|
 F--55555555777777778888888810101010101010------------|
 C--55555555777777778888888810101010101010------------|
 G--3333333355555555666666668-8-8-8-8-8-8-8-----------|
 C----------------------------------------------------| (sorry bout the 10's)
 D---------------------------|
 A---------------------------|
 F--55555555-----------------|

C--5555555588888888666666668
G--3333333388888888666666668
 
 C----------88888888666666668

The order:
Intro
Pre-Verse
Verse
Chorus(whole thing)
Pre-Verse
Verse
Chorus(whole thing)
Bridge
Chorus (whole thing)
Chorus part 2
End on
[D--]  
[A--]  
[F---]C--10
G--10
C--10
or
[C---]  
[A---]  
[F--5]  
[C--5]  
[G--3]  
[C---]  
All by ear. Corrections are accepted. Thanks!!

Important: The song above is NOT stored on the Chordie server. The original song is hosted at www.guitaretab.com. Chordie works as a search engine and provides on-the-fly formatting. Chordie does not index songs against artists'/composers' will. To remove this song please click here.

Text color:
Chord color:
Chord grids: 
Font size:    
Page size: 

C--5 F--5
Rate #2 of 2 versions

Login - add to songbook

SHARE PAGE  



You need to log in to post comments