Guitar Tabs, Chords and Lyrics
Major upgrade!! After one year development the new version of Chordie is now online! Please give feedback.


Amsterdam   Coldplay

 
 e--|0-------0-----------------------|--------------------------------|
 b--|1-------1-------3-------3-------|3-------------------------------|
 g--|0-------0-------0-------0-------|0-------------------------------|
 d--|2-------2-----0-0-------0-----0-|5---4---0---3---------------2---|
 a--|3-------3---3---2-------2---2---|0---------------3---------------|
 E--|--------------------------------|----------------1---------------|

 


 ^ ^ ^ ^ ^ ^ ^ ^ ^ ^ ^ ^ ^ ^ ^ ^


 [1] [2] [3] [4] [1] [2] [3] [4] 


 


 

 
 e--|0-------0-----------------------|--------------------------------|
 b--|1-------1-------3-------3-------|3-------------------------------|
 g--|0-------0-------0-------0-------|0-------------------------------|
 d--|2-------2-----0-0-------0-----0-|5---4---0---3-------2---0-------|
 a--|3-------3---3---2-------2---2---|0---------------3-----------3---|
 E--|--------------------------------|----------------1---------------|

 


 ^ ^ ^ ^ ^ ^ ^ ^ ^ ^ ^ ^ ^ ^ ^ ^


 [1] [2] [3] [4] [1] [2] [3] [4] 


 


 

 
 e--|0-------0-----------------------|--------------------------------|
 b--|1-------1-------3-------3-------|3-------------------------------|
 g--|0-------0-------0-------0-------|0-------------------------------|
 d--|2-------2-----0-0-------0-----0-|5---4---0---3---3-----------2---|
 a--|3-------3---3---2-------2---2---|0---------------3---------------|
 E--|--------------------------------|----------------1---------------|

 


 ^ ^ ^ ^ ^ ^ ^ ^ ^ ^ ^ ^ ^ ^ ^ ^


 [1] [2] [3] [4] [1] [2] [3] [4] 


 


 

 
 e--|--------------------------------|--------------------------------|
 b--|--------1---3---3---0-----------|3---------------1---------------|
 g--|0-------0-------0-------2---0---|2---------------0---------------|
 d--|2-------2-------0-------0-------|4---------------3---------------|
 a--|3-------3-------2---------------|0---------------3---------------|
 E--|--------------------------------|----------------1---------------|

 


 ^ ^ ^ ^ ^ ^ ^ ^ ^ ^ ^ ^ ^ ^ ^ ^


 [1] [2] [3] [4] [1] [2] [3] [4] 


 


 chorus


 


 

 
 e--|0-----------0-----------0-------|0-----------0-----------0-------|
 b--|3-----------3-----------3-------|1-----------1-----------1-------|
 g--|2-----------2-----------2-------|2-----------2-----------2-------|
 d--|4-----------4-----------4-------|3-----------3-----------3-------|
 a--|0-----------0-----------0-------|3-----------3-----------3-------|
 E--|--------------------------------|1-----------1-----------1-------|

 


 ^ ^ ^ ^ ^ ^ ^ ^ ^ ^ ^ ^ ^ ^ ^ ^


 [1] [2] [3] [4] [1] [2] [3] [4] 


 


 

 
 e--|0-----------0-----------0-------|0-----------0-----------0-------|
 b--|1-----------1-----------1-------|0-----------0-----------0-------|
 g--|0-----------0-----------0-------|0-----------0-----------0-------|
 d--|2-----------2-----------2-------|0-----------0-----------0-------|
 a--|3-----------3-----------3-------|2-----------2-----------2-------|
 E--|3-----------3-----------3-------|3-----------3-----------3-------|


Important: The song above is NOT stored on the Chordie server. The original song is hosted at www.guitaretab.com. Chordie works as a search engine and provides on-the-fly formatting. Chordie does not index songs against artists'/composers' will. To remove this song please click here.

This song is displayed as text-only. Transposing and tuning is only available for chordpro-songs.
Rate #2 of 22 versions

Jango Player

Login - add to songbook

SHARE PAGE  




You need to log in to post comments