Guitar Tabs, Chords and Lyrics
Update 25:10. 13:00. Site is back up running again. Songbooks are recovered. Woring on getting search back up..


Slow  Collective Soul

T1: jorge luis varela, pala42@hotmail.com, collective soul, slow,
[##/##/1999]  
S1: ARTIST: COLLECTIVE SOUL
SONG: SLOW
ALBUM: DOSAGE
TRANSCRIBED BY: Jorge Luis Varela
E-MAIL: pala42@hotmail.com
Tune down a 1/2 step
INTRO
 
 RIFF A.-W/WAH--------------------------------------------------------|

|
E A E A |
 
 |----------------------------------|----------------------------------|
 |----------------------------------|----------------------------------|
 |----------------------------------|----------------------------------|
 |--------x-x-x-x-9\11-11-11-11-11--|--------x-x-x-x-9\11-11-11-11-11--|
 |-9-9-11-x-x-x-x-------------------|-9-9-11-x-x-x-x-------------------|
 |----------------------------------|----------------------------------|
 RIFF B.--------------------------------------------------------------|

|
E A E A E A E A |
 
 |-12---------------12--------------|-12-------------------------------|
 |---------12----------------12-----|----------------------------------|
 |-------------13----------------13-|-----------14-------13------11----|
 |----------------------------------|----------------------------------|
 |----------------------------------|----------------------------------|
 |----------------------------------|----------------------------------|

VERSE W/RIFF A
[E] [A] [E] [A] [E] [A] [E] 
1.-[A] Mornings like this make me feel like i never could float
2.- Clothed in new costumes that weather your new found storms
 
 |----------------------------------|----------------------------------|
 |----------------------------------|----------------------------------|
 |----9-----------------------------|----------------------------------|
 |----------------------------------|----------------------------------|
 |----------------------------------|----------------------------------|
 |----------------------------------|----------------------------------|

[E] [A] [E] [A] [E] [A] [E] 
1[A].- Glimpses of peace portray all that you never could show
2.- Staring through reason, content with your new found decor
CHORUS
[E]Im not weakened by the fears that you have ap[Asus2]plied
X2 X2
 
 |---------------0------------------|------------------------0---------|
 |-----0-------0--------------------|------------------0---------------|
 |-----1----1-----------------------|----------------2-2---2-----------|
 |---2------------------------------|--------------2-------------------|
 |----------------------------------|------------0---------------------|
 |-0------0-------------------------|----------------------------------|

[E]Im now learning in these walls that have been [Asus2]supplied
X2 X2
 
 |-----------------0----------------|---------------------------0------|
 |------0-------0-------------------|---------------------0------------|
 |------1----1----------------------|-------------------2-2---2--------|
 |----2-----------------------------|-----------------2----------------|
 |----------------------------------|---------------0------------------|
 |-0-------0------------------------|----------------------------------|

[E]Slow,________ [Bm]slow down, boy. [Asus2]Slow down to control.
 
 |-------0-----------------5--------|----------0---------------------0-|
 |---0-------------------3----------|----0-------------------2-0-----0-|
 |-----1---------------2------------|-------2--------------2-2-2---2---|
 |----------------------------------|----------------------------------|
 |----------------2-----------------|-0------------------0-------------|
 |-0--------------------------------|----------------------------------|

[E]Slow,__________[Bm] slow,_____________ s[Asus2]low down now
 
 |-------0------------------5--------|----------0--------------------0-|
 |---0-------0------------3----0-0---|----0------------------2-0-----0-|
 |-----1-------1--------2------------|-------2-------------2-2-2---2---|
 |-----------------------------------|---------------------------------|
 |-----------------2-----------------|-0-----------------0-------------|
 |-0---------------------------------|---------------------------------|
 VERSE 1 END.-W/RIFF A and RIFF B-------------------------------------|

[E] [A] [E] [A] [E] [A] [E] [A] [E] [A] [E] [A] 
 
 VERSE 2 END.---------------------------------------------------------|

|
E A ~~~ E A ~~~ |
 
 |----------------------------------|----------------------------------|
 |----------------------------------|----------------------------------|
 |----------------------------------|----------------------------------|
 |---------------------9-9-9-9-11---|---------------------9-9-9-9-11---|
 |-9-9-9-9-11-11-11-11--------------|-9-9-9-9-11-11-11-11--------------|
 |----------------------------------|----------------------------------|

E A ~~~ E A ~~~ |
 
 |----------------------------------|----------------------------------|
 |----------------------------------|----------------------------------|
 |----------------------------------|----------------------------------|
 |---------------------9-9-9-9-11---|---------------------9-9-9-9-11---|
 |-9-9-9-9-11-11-11-11--------------|-9-9-9-9-11-11-11-11--------------|
 |----------------------------------|----------------------------------|

BRIDGE W/SPOKE VOCAL
Dsus2 Asus2 E A ~~~
 
 |------------0------------------0--|----------------------------------|
 |-------3----3---------2-0------0--|----------------------------------|
 |-----2----2---------2-2-2---2-----|----------------------------------|
 |---0------------------------------|---------------------9-9-9-9-11---|
 |-0----------------0---------------|-9-9-9-9-11-11-11-11--------------|
 |----------------------------------|----------------------------------|

E A ~~~ Dsus2 Asus2
 
 |----------------------------------|------------0------------------0--|
 |----------------------------------|-------3----3--------2-0-------0--|
 |----------------------------------|-----2----2--------2-2-2----2-----|
 |---------------------9-9-9-9-11---|---0------------------------------|
 |-9-9-9-9-11-11-11-11--------------|-0---------------0----------------|
 |----------------------------------|----------------------------------|
 INTERLUDE W/RIFF A.---------------------------------------------------|

[E] [A] [E] [A] [E] [A] [E] [A] 
END
[Asus2] [E]  
 
 |------------------10---10---10---10---10---10---10---10-|-0----------|
 |----------2---0---12---12---12---12---12---12---12---12-|-0----------|
 |------2-------------------------------------------------|-1----------|
 |--------------------------------------------------------|-2----------|
 |-0------------------------------------------------------|-2----------|
 |--------------------------------------------------------|-0----------|

CHORDS
E 022100
A 002220
Asus2 002200
Bm 024432
Dsus2 000230
pala42@hotmail.com

Important: The song above is NOT stored on the Chordie server. The original song is hosted at www.guitaretab.com. Chordie works as a search engine and provides on-the-fly formatting. Chordie does not index songs against artists'/composers' will. To remove this song please click here.

Text color:
Chord color:
Chord grids: 
Font size:    
Page size: 

A Asus2 Bm E
Rate #1 of 4 versions

Jango Player

Login - add to songbook

SHARE PAGE  




You need to log in to post comments