Guitar Tabs, Chords and Lyrics
Server problems seems to be fixed. Chordie has been experiencing problems with songs disappearing. These issues now seems to be fixed, but still verifying the fix. If you find anything strange, please email admin@chordie.com.


All That I Know  Collective Soul

 
 -----------------------------------------------------------------------------

Collective Soul - All That I Know (GUITAR)
 
 -----------------------------------------------------------------------------

Tabbed by: Scotto10
Tuning: Half Step Down
=============================================================================
Guitar 1
[E] [E] [E] [E] [E] [E] [E] [E] [E] [E] [E] [E] [E] [E] [E] [E]  
 
 D#||-------|-------|--------------------------|---------------------------|
 A#||-------|-------|--------------------------|---------------------------|
 F#||-------|-------|--------------------------|---------------------------|
 C#||-------|-------|--------2-----------2-----|--------2-----------2------|
 G#||-------|-------|--------------------------|---------------------------|
 D#||-------|-------|--1--1-----1-----1-----1--|--1--1-----1-----1-----1s--|

[E] [E] [E] [E] [E] [E] [E] [E] [E] [E] [E] [E] [E] [E] [E] [E]  
 
 ------------------------------|------------------------------|
 ------------------------------|------------------------------|
 ------------9---L---9---9-----|------------9---L---9---9-----|
 -----------10---L-------------|-----------10---L-------------|
 -------------------10--10-----|-------------------10--10-----|
 --8--8--8---8-------8---8--0--|--8--8--8---8-------8---8--0--|

[E] [E] [E] [E] [E] [E] [E] [E] [E] [E] [E] [E] [E] [E] [E] [E]  
 
 --------------------------|---------------------------|
 --------------------------|---------------------------|
 --------------------------|---------------------------|
 --------2-----------2-----|--------2-----------2------|
 --------------------------|---------------------------|
 --1--1-----1-----1-----1--|--1--1-----1-----1-----1s--|

[E] [E] [E] [E] [E] [E] [E] [E] [E] [E] [E] [E] [E] [E] [E] [E]  
 
 ------------------------------|------------------------------|
 ------------------------------|------------------------------|
 ------------9---L---9---9-----|------------9---L---9---9-----|
 -----------10---L-------------|-----------10---L-------------|
 -------------------10--10-----|-------------------10--10-----|
 --8--8--8---8-------8---8--0--|--8--8--8---8-------8---8--0--|

[E] [E] [E] [E] [E] [E] [E] [E] [E] [E] [E] [E] [E] [E] [E] [E]  
 
 --------------------------|---------------------------|
 --------------------------|---------------------------|
 --------------------------|---------------------------|
 --------2-----------2-----|--------2-----------2------|
 --------------------------|---------------------------|
 --1--1-----1-----1-----1--|--1--1-----1-----1-----1s--|

[E] [E] [E] [E] [E] [E] [E] [E] [E] [E] [E] [E] [E] [E] [E] [E]  
 
 ------------------------------|------------------------------|
 ------------------------------|------------------------------|
 ------------9---L---9---9-----|------------9---L---9---9-----|
 -----------10---L-------------|-----------10---L-------------|
 -------------------10--10-----|-------------------10--10-----|
 --8--8--8---8-------8---8--0--|--8--8--8---8-------8---8--0--|

[E] [E] [E] [E] [E] [E] [E] [E] [E] [E] [E] [E] [E] [E] [E] [E]  
 
 --------------------------|---------------------------|
 --------------------------|---------------------------|
 --------------------------|---------------------------|
 --------2-----------2-----|--------2-----------2------|
 --------------------------|---------------------------|
 --1--1-----1-----1-----1--|--1--1-----1-----1-----1s--|

[E] [E] [E] [E] [E] [E] [E] [E] [E] [E] [E] [E] [E] [E] [E] [E]  
 
 ------------------------------|------------------------------|
 ------------------------------|------------------------------|
 ------------9---L---9---9-----|------------9---L---9---9-----|
 -----------10---L-------------|-----------10---L-------------|
 -------------------10--10-----|-------------------10--10-----|
 --8--8--8---8-------8---8--0--|--8--8--8---8-------8---8--0--|

[E] [E] [E] [E] [E] [E] [E] [E] [E] [E] [E] [E] [E] [E] [E] [E]  
 
 --------------------------|---------------------------|
 --------------------------|---------------------------|
 --------------------------|---------------------------|
 --------2-----------2-----|--------2-----------2------|
 --------------------------|---------------------------|
 --1--1-----1-----1-----1--|--1--1-----1-----1-----1s--|

[E] [E] [E] [E] [E] [E] [E] [E] [E] [E] [E] [E] [E] [E] [E] [E]  
 
 ------------------------------|------------------------------|
 ------------------------------|------------------------------|
 ------------9---L---9---9-----|------------9---L---9---9-----|
 -----------10---L-------------|-----------10---L-------------|
 -------------------10--10-----|-------------------10--10-----|
 --8--8--8---8-------8---8--0--|--8--8--8---8-------8---8--0--|

Q. E Q Q Q. E Q Q Q. E Q Q
 
 --5------5--5----5----|--5------5--5----5----|--5------5--5----5----|
 --6------6--6----6----|--5------5--5----5----|--6------6--6----6----|
 --7------L--L----L----|--5------L--L----L----|--7------L--L----L----|
 --7------L--L----L----|--7------L--L----L----|--7------L--L----L----|
 --5------L--L----L----|--7------L--L----L----|--5------L--L----L----|
 ----------------------|--5------L--L----L----|----------------------|

H. Q E E E E E E E E E E E E E E E E
 
 --5------------5----|--------------------------|--------------------------|
 --5------------5----|--------------------------|--------------------------|
 --5-----------------|--------4-----------4-----|--------4-----------4-----|
 --7------------L----|--5--L--5--5--5--5--5--5--|--5--5--5--5--5--5--5--5--|
 --7------------L----|--5--L--5--5--5--5--5--5--|--5--5--5--5--5--5--5--5--|
 --5------------L----|--3--L--3--3--3--3--3--3--|--3--3--3--3--3--3--3--3--|

[E] [E] [E] [E] [E] [E] [E] [E] [E] [E] [E] [E] [E] [E] [E] [E]  
 
 --------------------------|--------------------------|
 --------------------------|--------------------------|
 --------------------------|--5--5--5--5--5--5--5--5--|
 --3--3--3--3--3--3--3--3--|--5--5--5--5--5--5--5--5--|
 --3--3--3--3--3--3--3--3--|--3--3--3--3--3--3--3--3--|
 --1--1--1--1--1--1--1--1--|--------------------------|

[E] [E] [E] [E] [E] [E] [E] [E] [E] [E] [E] [E] [E] [E] [E] [E]  
 
 --------------------------|--------------------------|
 --------------------------|--------------------------|
 --------------------------|--5--5--5--5--5--5--5--5--|
 --3--3--3--3--3--3--3--3--|--5--5--5--5--5--5--5--5--|
 --3--3--3--3--3--3--3--3--|--3--3--3--3--3--3--3--3--|
 --1--1--1--1--1--1--1--1--|--------------------------|

E E E E E E E E E E E E E E E E Q Q Q Q
 
 --------------------------|--------------------------|----------------------|
 --------------------------|--------------------------|----------------------|
 --------------------------|--5--5--5--5--5--5--5--5--|----------------------|
 --3--3--3--3--3--3--3--3--|--5--5--5--5--5--5--5--5--|--5----5----5----5----|
 --3--3--3--3--3--3--3--3--|--3--3--3--3--3--3--3--3--|--5----5----5----5----|
 --1--1--1--1--1--1--1--1--|--------------------------|--3----3----3----3----|

Q Q Q Q E E E E E E E E E E E E E E E E
 
 ----------------------|--------------------------|---------------------------|
 ----------------------|--------------------------|---------------------------|
 ----------------------|--------------------------|---------------------------|
 --5----5----5----5----|--------2-----------2-----|--------2-----------2------|
 --5----5----5----5----|--------------------------|---------------------------|
 --3----3----3----3----|--1--1-----1-----1-----1--|--1--1-----1-----1-----1s--|

[E] [E] [E] [E] [E] [E] [E] [E] [E] [E] [E] [E] [E] [E] [E] [E]  
 
 ------------------------------|------------------------------|
 ------------------------------|------------------------------|
 ------------9---L---9---9-----|------------9---L---9---9-----|
 -----------10---L-------------|-----------10---L-------------|
 -------------------10--10-----|-------------------10--10-----|
 --8--8--8---8-------8---8--0--|--8--8--8---8-------8---8--0--|

[E] [E] [E] [E] [E] [E] [E] [E] [E] [E] [E] [E] [E] [E] [E] [E]  
 
 --------------------------|---------------------------|
 --------------------------|---------------------------|
 --------------------------|---------------------------|
 --------2-----------2-----|--------2-----------2------|
 --------------------------|---------------------------|
 --1--1-----1-----1-----1--|--1--1-----1-----1-----1s--|

[E] [E] [E] [E] [E] [E] [E] [E] [E] [E] [E] [E] [E] [E] [E] [E]  
 
 ------------------------------|------------------------------|
 ------------------------------|------------------------------|
 ------------9---L---9---9-----|------------9---L---9---9-----|
 -----------10---L-------------|-----------10---L-------------|
 -------------------10--10-----|-------------------10--10-----|
 --8--8--8---8-------8---8--0--|--8--8--8---8-------8---8--0--|

[E] [E] [E] [E] [E] [E] [E] [E] [E] [E] [E] [E] [E] [E] [E] [E]  
 
 --------------------------|---------------------------|
 --------------------------|---------------------------|
 --------------------------|---------------------------|
 --------2-----------2-----|--------2-----------2------|
 --------------------------|---------------------------|
 --1--1-----1-----1-----1--|--1--1-----1-----1-----1s--|

[E] [E] [E] [E] [E] [E] [E] [E] [E] [E] [E] [E] [E] [E] [E] [E]  
 
 ------------------------------|------------------------------|
 ------------------------------|------------------------------|
 ------------9---L---9---9-----|------------9---L---9---9-----|
 -----------10---L-------------|-----------10---L-------------|
 -------------------10--10-----|-------------------10--10-----|
 --8--8--8---8-------8---8--0--|--8--8--8---8-------8---8--0--|

[E] [E] [E] [E] [E] [E] [E] [E] [E] [E] [E] [E] [E] [E] [E] [E]  
 
 --------------------------|---------------------------|
 --------------------------|---------------------------|
 --------------------------|---------------------------|
 --------2-----------2-----|--------2-----------2------|
 --------------------------|---------------------------|
 --1--1-----1-----1-----1--|--1--1-----1-----1-----1s--|

[E] [E] [E] [E] [E] [E] [E] [E] [E] [E] [E] [E] [E] [E] [E] [E]  
 
 ------------------------------|------------------------------|
 ------------------------------|------------------------------|
 ------------9---L---9---9-----|------------9---L---9---9-----|
 -----------10---L-------------|-----------10---L-------------|
 -------------------10--10-----|-------------------10--10-----|
 --8--8--8---8-------8---8--0--|--8--8--8---8-------8---8--0--|

Q. E Q Q Q. E Q Q Q. E Q Q
 
 --5------5--5----5----|--5------5--5----5----|--5------5--5----5----|
 --6------6--6----6----|--5------5--5----5----|--6------6--6----6----|
 --7------L--L----L----|--5------L--L----L----|--7------L--L----L----|
 --7------L--L----L----|--7------L--L----L----|--7------L--L----L----|
 --5------L--L----L----|--7------L--L----L----|--5------L--L----L----|
 ----------------------|--5------L--L----L----|----------------------|

H. Q E E E E E E E E E E E E E E E E
 
 --5------------5----|--------------------------|--------------------------|
 --5------------5----|--------------------------|--------------------------|
 --5-----------------|--------4-----------4-----|--------4-----------4-----|
 --7------------L----|--5--L--5--5--5--5--5--5--|--5--5--5--5--5--5--5--5--|
 --7------------L----|--5--L--5--5--5--5--5--5--|--5--5--5--5--5--5--5--5--|
 --5------------L----|--3--L--3--3--3--3--3--3--|--3--3--3--3--3--3--3--3--|

[E] [E] [E] [E] [E] [E] [E] [E] [E] [E] [E] [E] [E] [E] [E] [E]  
 
 --------------------------|--------------------------|
 --------------------------|--------1-----------1-----|
 --------2-----------2-----|--0--L--0--0--0--0--0--0--|
 --3--L--3--3--3--3--3--3--|--2--L--2--2--2--2--2--2--|
 --3--L--3--3--3--3--3--3--|--3--L--3--3--3--3--3--3--|
 --1--L--1--1--1--1--1--1--|--------------------------|

[E] [E] [E] [E] [E] [E] [E] [E] [E] [E] [E] [E] [E] [E] [E] [E]  
 
 --------------------------|--------------------------|
 --------------------------|--------1-----------1-----|
 --------2-----------2-----|--0--L--0--0--0--0--0--0--|
 --3--L--3--3--3--3--3--3--|--2--L--2--2--2--2--2--2--|
 --3--L--3--3--3--3--3--3--|--3--L--3--3--3--3--3--3--|
 --1--L--1--1--1--1--1--1--|--------------------------|

[E] [E] [E] [E] [E] [E] [E] [E] [E] [E] [E] [E] [E] [E] [E] [E]  
 
 --------------------------|--------------------------|
 --------------------------|--------1-----------1-----|
 --------2-----------2-----|--0--L--0--0--0--0--0--0--|
 --3--L--3--3--3--3--3--3--|--2--L--2--2--2--2--2--2--|
 --3--L--3--3--3--3--3--3--|--3--L--3--3--3--3--3--3--|
 --1--L--1--1--1--1--1--1--|--------------------------|

[E] [E] [E] [E] [E] [E] [E] [E] [E] [E] [E] [E] [E] [E] [E] [E]  
 
 --------------------------|--------------------------|
 --------------------------|--------------------------|
 --------------------------|--------------------------|
 --5--5--5--5--5--5--5--5--|--5--5--5--5--5--5--5--5--|
 --5--5--5--5--5--5--5--5--|--5--5--5--5--5--5--5--5--|
 --3--3--3--3--3--3--3--3--|--3--3--3--3--3--3--3--3--|

[E] [E] [E] [E] [E] [E] [E] [E] [E] [E] [E] [E] [E] [E] [E] [E]  
 
 --------------------------|--------------------------|
 --------------------------|--------------------------|
 --------------------------|--5--5--5--5--5--5--5--5--|
 --3--3--3--3--3--3--3--3--|--5--5--5--5--5--5--5--5--|
 --3--3--3--3--3--3--3--3--|--3--3--3--3--3--3--3--3--|
 --1--1--1--1--1--1--1--1--|--------------------------|

[E] [E] [E] [E] [E] [E] [E] [E] [E] [E] [E] [E] [E] [E] [E] [E]  
 
 --------------------------|--------------------------|
 --------------------------|--------------------------|
 --------------------------|--5--5--5--5--5--5--5--5--|
 --3--3--3--3--3--3--3--3--|--5--5--5--5--5--5--5--5--|
 --3--3--3--3--3--3--3--3--|--3--3--3--3--3--3--3--3--|
 --1--1--1--1--1--1--1--1--|--------------------------|

[E] [E] [E] [E] [E] [E] [E] [E] [E] [E] [E] [E] [E] [E] [E] [E]  
 
 --------------------------|--------------------------|
 --------------------------|--------------------------|
 --------------------------|--5--5--5--5--5--5--5--5--|
 --3--3--3--3--3--3--3--3--|--5--5--5--5--5--5--5--5--|
 --3--3--3--3--3--3--3--3--|--3--3--3--3--3--3--3--3--|
 --1--1--1--1--1--1--1--1--|--------------------------|

[E] [E] [E] [E] [E] [E] [E] [E] [E] [E] [E] [E] [E] [E] [E] [E]  
 
 --------------------------|--------------------------|
 --------------------------|--------------------------|
 --------------------------|--------------------------|
 --5--5--5--5--5--5--5--5--|--5--5--5--5--5--5--5--5--|
 --5--5--5--5--5--5--5--5--|--5--5--5--5--5--5--5--5--|
 --3--3--3--3--3--3--3--3--|--3--3--3--3--3--3--3--3--|

[E] [E] [E] [E] [E] [E] [E] [E] [E] [E] [E] [E] [E] [E] [E] [E]  
 
 --------------------------|---------------------------|
 --------------------------|---------------------------|
 --------------------------|---------------------------|
 --------2-----------2-----|--------2-----------2------|
 --------------------------|---------------------------|
 --1--1-----1-----1-----1--|--1--1-----1-----1-----1s--|

[E] [E] [E] [E] [E] [E] [E] [E] [E] [E] [E] [E] [E] [E] [E] [E]  
 
 ------------------------------|------------------------------|
 ------------------------------|------------------------------|
 ------------9---L---9---9-----|------------9---L---9---9-----|
 -----------10---L-------------|-----------10---L-------------|
 -------------------10--10-----|-------------------10--10-----|
 --8--8--8---8-------8---8--0--|--8--8--8---8-------8---8--0--|

[E] [E] [E] [E] [E] [E] [E] [E] [E] [E] [E] [E] [E] [E] [E] [E]  
 
 --------------------------|---------------------------|
 --------------------------|---------------------------|
 --------------------------|---------------------------|
 --------2-----------2-----|--------2-----------2------|
 --------------------------|---------------------------|
 --1--1-----1-----1-----1--|--1--1-----1-----1-----1s--|

[E] [E] [E] [E] [E] [E] [E] [E] [E] [E] [E] [E] [E] [E] [E] [E]  
 
 ------------------------------|------------------------------|
 ------------------------------|------------------------------|
 ------------9---L---9---9-----|------------9---L---9---9-----|
 -----------10---L-------------|-----------10---L-------------|
 -------------------10--10-----|-------------------10--10-----|
 --8--8--8---8-------8---8--0--|--8--8--8---8-------8---8--0--|

Q. E Q Q Q. E Q Q Q. E Q Q
 
 --5------5--5----5----|--5------5--5----5----|--5------5--5----5----|
 --6------6--6----6----|--5------5--5----5----|--6------6--6----6----|
 --7------L--L----L----|--5------L--L----L----|--7------L--L----L----|
 --7------L--L----L----|--7------L--L----L----|--7------L--L----L----|
 --5------L--L----L----|--7------L--L----L----|--5------L--L----L----|
 ----------------------|--5------L--L----L----|----------------------|

Q. Q. Q E E E E E E E E E E E E E E E E
 
 --5------5------5----|--------------------------|--------------------------|
 --5------5------5----|--------------------------|--------------------------|
 --5------------------|--------------------------|--------------------------|
 --7------L------L----|--------------------------|--------------------------|
 --7------L------L----|--5--5--5--5--5--5--5--5--|--5--5--5--5--5--5--5--5--|
 --5------L------L----|--3--3--3--3--3--3--3--3--|--3--3--3--3--3--3--3--3--|

[E] [E] [E] [E] [E] [E] [E] [E] [E] [E] [E] [E] [E] [E] [E] [E]  
 
 --------------------------|--------------------------|
 --------------------------|--------1-----------1-----|
 --------2-----------2-----|--0--L--0--0--0--0--0--0--|
 --3--L--3--3--3--3--3--3--|--2--L--2--2--2--2--2--2--|
 --3--L--3--3--3--3--3--3--|--3--L--3--3--3--3--3--3--|
 --1--L--1--1--1--1--1--1--|--------------------------|

[E] [E] [E] [E] [E] [E] [E] [E] [E] [E] [E] [E] [E] [E] [E] [E]  
 
 --------------------------|--------------------------|
 --------------------------|--------1-----------1-----|
 --------2-----------2-----|--0--L--0--0--0--0--0--0--|
 --3--L--3--3--3--3--3--3--|--2--L--2--2--2--2--2--2--|
 --3--L--3--3--3--3--3--3--|--3--L--3--3--3--3--3--3--|
 --1--L--1--1--1--1--1--1--|--------------------------|

[E] [E] [E] [E] [E] [E] [E] [E] [E] [E] [E] [E] [E] [E] [E] [E]  
 
 --------------------------|--------------------------|
 --------------------------|--------1-----------1-----|
 --------2-----------2-----|--0--L--0--0--0--0--0--0--|
 --3--L--3--3--3--3--3--3--|--2--L--2--2--2--2--2--2--|
 --3--L--3--3--3--3--3--3--|--3--L--3--3--3--3--3--3--|
 --1--L--1--1--1--1--1--1--|--------------------------|

[E] [E] [E] [E] [E] [E] [E] [E] [E] [E] [E] [E] [E] [E] [E] [E]  
 
 --------------------------|--------------------------|
 --------------------------|--------------------------|
 --------------------------|--------------------------|
 --5--5--5--5--5--5--5--5--|--5--5--5--5--5--5--5-----|
 --5--5--5--5--5--5--5--5--|--5--5--5--5--5--5--5-----|
 --3--3--3--3--3--3--3--3--|--3--3--3--3--3--3--3--0--|

[E] [E] [E] [E] [E] [E] [E] [E] [E] [E] [E] [E] [E] [E] [E] [E]  
 
 --------------------------|--------------------------|
 --x--x--------------------|--------------------------|
 --x--x--------------------|--5--5--5--5--5--5--5--5--|
 --x--x--3--3--3--3--3--3--|--5--5--5--5--5--5--5--5--|
 --x--x--3--3--3--3--3--3--|--3--3--3--3--3--3--3--3--|
 --------1--1--1--1--1--1--|--------------------------|

[E] [E] [E] [E] [E] [E] [E] [E] [E] [E] [E] [E] [E] [E] [E] [E]  
 
 --------------------------|--------------------------|
 --------------------------|--------------------------|
 --------------------------|--5--5--5--5--5--5--5-----|
 --3--3--3--3--3--3--3--3--|--5--5--5--5--5--5--5-----|
 --3--3--3--3--3--3--3--3--|--3--3--3--3--3--3--3-----|
 --1--1--1--1--1--1--1--1--|-----------------------0--|

[E] [E] [E] [E] [E] [E] [E] [E] [E] [E] [E] [E] [E] [E] [E] [E]  
 
 --------------------------|--------------------------|
 --------------------------|--------------------------|
 --------------------------|--5--5--5--5--5--5--5--5--|
 --3--3--3--3--3--3--3--3--|--5--5--5--5--5--5--5--5--|
 --3--3--3--3--3--3--3--3--|--3--3--3--3--3--3--3--3--|
 --1--1--1--1--1--1--1--1--|--------------------------|

[E] [E] [E] [E] [E] [E] [E] [E] [E] [E] [E] [E] [E] [E] [E] [E]  
 
 --------------------------|--------------------------|
 --------------------------|--------------------------|
 --------------------------|--------------------------|
 --5--5--5--5--5--5--5--5--|--5--5--5--5--5--5--5--5--|
 --5--5--5--5--5--5--5--5--|--5--5--5--5--5--5--5--5--|
 --3--3--3--3--3--3--3--3--|--3--3--3--3--3--3--3--3--|

[E] [E] [E] [E] [E] [E] [E] [E] [E] [E] [E] [E] [E] [E] [E] [E]  
 
 --------------------------|---------------------------|
 --------------------------|---------------------------|
 --------------------------|---------------------------|
 --------2-----------2-----|--------2-----------2------|
 --------------------------|---------------------------|
 --1--1-----1-----1-----1--|--1--1-----1-----1-----1s--|

E E E E E E E E E E E E E Q E
 
 ------------------------------|----------------------------|
 ------------------------------|----------------------------|
 ------------9---L---9---L--0--|------------9---L---9-------|
 -----------10---L-------------|-----------10---L-----------|
 -------------------10---L--7--|-------------------10-------|
 --8--8--8---8-------8---L-----|--8--8--8---8-------8----0--|

[E] [E] [E] [E] [E] [E] [E] [E] [E] [E] [E] [E] [E] [E] [E] [E]  
 
 --------------------------|---------------------------|
 --------------------------|---------------------------|
 --------------------------|---------------------------|
 --------2-----------2-----|--------2-----------2------|
 --------------------------|---------------------------|
 --1--1-----1-----1-----1--|--1--1-----1-----1-----1s--|

E E E E E E E E E E E E E Q E
 
 ------------------------------|----------------------------|
 ------------------------------|----------------------------|
 ------------9---L---9---L--0--|------------9---L---9-------|
 -----------10---L-------------|-----------10---L-----------|
 -------------------10---L--7--|-------------------10-------|
 --8--8--8---8-------8---L-----|--8--8--8---8-------8----0--|

[E] [E] [E] [E] [E] [E] [E] [E] [E] [E] [E] [E] [E] [E] [E] [E]  
 
 --------------------------|---------------------------|
 --------------------------|---------------------------|
 --------------------------|---------------------------|
 --------2-----------2-----|--------2-----------2------|
 --------------------------|---------------------------|
 --1--1-----1-----1-----1--|--1--1-----1-----1-----1s--|

E E E E E E E E E E E E E Q E
 
 ------------------------------|----------------------------|
 ------------------------------|----------------------------|
 ------------9---L---9---L--0--|------------9---L---9-------|
 -----------10---L-------------|-----------10---L-----------|
 -------------------10---L--7--|-------------------10-------|
 --8--8--8---8-------8---L-----|--8--8--8---8-------8----0--|

[E] [E] [E] [E] [E] [E] [E] [E] [E] [E] [E] [E] [E] [E] [E] [E]  
 
 --------------------------|---------------------------|
 --------------------------|---------------------------|
 --------------------------|---------------------------|
 --------2-----------2-----|--------2-----------2------|
 --------------------------|---------------------------|
 --1--1-----1-----1-----1--|--1--1-----1-----1-----1s--|

E E E E E E E E E E E E E Q E
 
 ------------------------------|----------------------------||
 ------------------------------|----------------------------||
 ------------9---L---9---L--0--|------------9---L---9-------||
 -----------10---L-------------|-----------10---L-----------||
 -------------------10---L--7--|-------------------10-------||
 --8--8--8---8-------8---L-----|--8--8--8---8-------8----0--||

=============================================================
=============================================================
Guitar 2
 
 D#||-------|-------|-------|-------|-------|-------|-------|-------|-------|
 A#||-------|-------|-------|-------|-------|-------|-------|-------|-------|
 F#||-------|-------|-------|-------|-------|-------|-------|-------|-------|
 C#||-------|-------|-------|-------|-------|-------|-------|-------|-------|
 G#||-------|-------|-------|-------|-------|-------|-------|-------|-------|
 D#||-------|-------|-------|-------|-------|-------|-------|-------|-------|
 -------|-------|-------|-------|-------|-------|-------|-------|-------|-------|
 -------|-------|-------|-------|-------|-------|-------|-------|-------|-------|
 -------|-------|-------|-------|-------|-------|-------|-------|-------|-------|
 -------|-------|-------|-------|-------|-------|-------|-------|-------|-------|
 -------|-------|-------|-------|-------|-------|-------|-------|-------|-------|
 -------|-------|-------|-------|-------|-------|-------|-------|-------|-------|

E E E E E E E E H. Q
 
 -------|-------|-------|--------------------------|--------------------|
 -------|-------|-------|-----L--6--6--6--5--------|--------------------|
 -------|-------|-------|-----L--------------7--5--|--------------------|
 -------|-------|-------|-----L--------------------|--7-----------------|
 -------|-------|-------|-----L--------------------|--------------------|
 -------|-------|-------|--------------------------|--------------------|

Q E E E E E E H. Q Q Q Q Q
 
 -------------------------|---------------------|--10----10----10----10----|
 -------6--6--6--5--------|---------------------|---8-----8-----8-----8----|
 -------------------7--5--|--/9-----------------|--------------------------|
 -------------------------|---------------------|--------------------------|
 -------------------------|---------------------|--------------------------|
 -------------------------|---------------------|--------------------------|

Q Q Q Q E E E E E E E E
 
 --10----10----10----10----|--------------------------|
 ---8-----8-----8-----8----|--------------------------|
 --------------------------|--------------------------|
 --------------------------|--3--3--3--3--3--3--3--3--|
 --------------------------|--3--3--3--3--3--3--3--3--|
 --------------------------|--1--1--1--1--1--1--1--1--|

[E] [E] [E] [E] [E] [E] [E] [E] [E] [E] [E] [E] [E] [E] [E] [E]  
 
 --------------------------|--------------------------|
 --------------------------|--------------------------|
 --5--5--5--5--5--5--5--5--|--------------------------|
 --5--5--5--5--5--5--5--5--|--3--3--3--3--3--3--3--3--|
 --3--3--3--3--3--3--3--3--|--3--3--3--3--3--3--3--3--|
 --------------------------|--1--1--1--1--1--1--1--1--|

[E] [E] [E] [E] [E] [E] [E] [E] [E] [E] [E] [E] [E] [E] [E] [E]  
 
 --------------------------|--------------------------|
 --------------------------|--------------------------|
 --5--5--5--5--5--5--5--5--|--------------------------|
 --5--5--5--5--5--5--5--5--|--3--3--3--3--3--3--3--3--|
 --3--3--3--3--3--3--3--3--|--3--3--3--3--3--3--3--3--|
 --------------------------|--1--1--1--1--1--1--1--1--|

E E E E E E E E Q Q Q Q Q Q Q Q
 
 --------------------------|----------------------|--8----L----7----L----|
 --------------------------|----------------------|--8----L----8----L----|
 --5--5--5--5--5--5--5--5--|----------------------|--7----L----7----L----|
 --5--5--5--5--5--5--5--5--|--5----5----5----5----|----------------------|
 --3--3--3--3--3--3--3--3--|--5----5----5----5----|----------------------|
 --------------------------|--3----3----3----3----|----------------------|
 -------|-------|-------|-------|-------|-------|-------|-------|-------|-------|
 -------|-------|-------|-------|-------|-------|-------|-------|-------|-------|
 -------|-------|-------|-------|-------|-------|-------|-------|-------|-------|
 -------|-------|-------|-------|-------|-------|-------|-------|-------|-------|
 -------|-------|-------|-------|-------|-------|-------|-------|-------|-------|
 -------|-------|-------|-------|-------|-------|-------|-------|-------|-------|

[E] [E] [E] [E] [E] [E] [E] [E]  
 
 -------|-------|-------|-------|-------|-------|--------------------------|
 -------|-------|-------|-------|-------|-------|-----L--6--6--6--5--------|
 -------|-------|-------|-------|-------|-------|-----L--------------7--5--|
 -------|-------|-------|-------|-------|-------|-----L--------------------|
 -------|-------|-------|-------|-------|-------|-----L--------------------|
 -------|-------|-------|-------|-------|-------|--------------------------|

H. Q Q E E E E E E H. Q
 
 --------------------|-------------------------|---------------------|
 --------------------|-------6--6--6--5--------|---------------------|
 --------------------|-------------------7--5--|--/9-----------------|
 --7-----------------|-------------------------|---------------------|
 --------------------|-------------------------|---------------------|
 --------------------|-------------------------|---------------------|

Q Q Q Q Q Q Q Q
 
 --10----10----10----10----|--10----10----10----10----|
 ---8-----8-----8-----8----|---8-----8-----8-----8----|
 --------------------------|--------------------------|
 --------------------------|--------------------------|
 --------------------------|--------------------------|
 --------------------------|--------------------------|

[E] [E] [E] [E] [E] [E] [E] [E] [E] [E] [E] [E] [E] [E] [E] [E]  
 
 --------------------------|--------------------------|
 --------------------------|--------------------------|
 --------------------------|--5--5--5--5--5--5--5--5--|
 --3--3--3--3--3--3--3--3--|--5--5--5--5--5--5--5--5--|
 --3--3--3--3--3--3--3--3--|--3--3--3--3--3--3--3--3--|
 --1--1--1--1--1--1--1--1--|--------------------------|

E E E E E E E E S S S S S S S S S S S S S S S S
 
 --------------------------|--------------------------------------------------|
 --------------------------|--17-17-17-17-17-17-17-17-17-17-15-15-13-13-13-13-|
 --------------------------|--------------------------------------------------|
 --3--3--3--3--3--3--3--3--|--14-14-14-14-14-14-14-14-14-14-12-12-10-10-10-10-|
 --3--3--3--3--3--3--3--3--|--------------------------------------------------|
 --1--1--1--1--1--1--1--1--|--------------------------------------------------|

S S S S S S S S S S S S S S S S Q Q Q Q
 
 --------------------------------------------------|--------------------------|
 --10-10-10-10-10-10-10-10-10-10-10-10-10-10-10-10-|--17----17----15----15----|
 --------------------------------------------------|--------------------------|
 ---7--7--7--7--7--7--7--7--7--7--7--7--7--7--7--7-|--14----14----12----12----|
 --------------------------------------------------|--------------------------|
 --------------------------------------------------|--------------------------|

S S S S S S S S S S S S S S S S
 
 --------------------------------------------------|
 --12-12-12-12-12-12-12-12-13-13-13-13-13-13-13-13-|
 --------------------------------------------------|
 ---9--9--9--9--9--9--9--9-10-10-10-10-10-10-10-10-|
 --------------------------------------------------|
 --------------------------------------------------|

S S S S S S S S S S S S S S S S
 
 --------------------------------------------------|
 --15-15-15-15-15-15-15-15-17-17-17-17-17-17-17-17-|
 --------------------------------------------------|
 --12-12-12-12-12-12-12-12-14-14-14-14-14-14-14-14-|
 --------------------------------------------------|
 --------------------------------------------------|

[E] [E] [E] [E] [E] [E] [E] [E] [E] [E] [E] [E] [E] [E] [E] [E]  
 
 ----------------------------------|--------------------------|
 --18--18--18--18--18--18--18--18--|--------------------------|
 ----------------------------------|--5--5--5--5--5--5--5--5--|
 --15--15--15--15--15--15--15--15--|--5--5--5--5--5--5--5--5--|
 ----------------------------------|--3--3--3--3--3--3--3--3--|
 ----------------------------------|--------------------------|

[E] [E] [E] [E] [E] [E] [E] [E] [E] [E] [E] [E] [E] [E] [E] [E]  
 
 --------------------------|--------------------------|
 --------------------------|--------------------------|
 --------------------------|--5--5--5--5--5--5--5--5--|
 --3--3--3--3--3--3--3--3--|--5--5--5--5--5--5--5--5--|
 --3--3--3--3--3--3--3--3--|--3--3--3--3--3--3--3--3--|
 --1--1--1--1--1--1--1--1--|--------------------------|

E E E E E E E E E E E E E E E E Q Q Q Q
 
 --------------------------|--------------------------|----------------------|
 --------------------------|--------------------------|----------------------|
 --------------------------|--5--5--5--5--5--5--5--5--|----------------------|
 --3--3--3--3--3--3--3--3--|--5--5--5--5--5--5--5--5--|--5----5----5----5----|
 --3--3--3--3--3--3--3--3--|--3--3--3--3--3--3--3--3--|--5----5----5----5----|
 --1--1--1--1--1--1--1--1--|--------------------------|--3----3----3----3----|

Q Q Q Q Q. Q E Q
 
 ----------------------|--12~----------------------|
 ----------------------|-----------15----13--------|
 ----------------------|---------------------12----|
 --5----5----5----5----|---------------------------|
 --5----5----5----5----|---------------------------|
 --3----3----3----3----|---------------------------|

Q. E E E E E Q E Q E. S E
 
 ------------------------------|-----------------------------|
 --------------12--13--12--10--|--------10-------------------|
 ---L------12------------------|--12--------9----Ls---12-----|
 ------------------------------|-------------------------10--|
 ------------------------------|-----------------------------|
 ------------------------------|-----------------------------|

PM PM PM W
Q E H E S. S. S. S. S. S. Q E S
 
 ---------------------------|-----------5--7--8--7----L--L/-|
 ---------------------------|--------5----------------------|
 ---------------------------|-----5-------------------------|
 ---L----/12----------------|--7----------------------------|
 -------------10~-----------|-------------------------------|
 ---------------------------|-------------------------------|

PM PM
S. S. S. S. S. S. Q S E Q H E E
 
 ---------------------------------|--15b----15---------L------|
 --------12-13-15-17-15-----L-----|---------------------------|
 -----14----------------------12--|-----------------------17--|
 --15-----------------------------|---------------------------|
 ---------------------------------|---------------------------|
 ---------------------------------|---------------------------|

Q H. Q. E E E E E
 
 --20b----20------------|---------17--17s--15--15s--13--|
 -----------------------|-------------------------------|
 -----------------------|---------14--14s--12--12s--10--|
 -----------------------|-------------------------------|
 -----------------------|-------------------------------|
 -----------------------|-------------------------------|
 |-----11----| 11 11 11 11 11 

E E Q S S S S S S S E S S
 
 --13s--12--12-------------10-12-13-12------------|
 -----------------------10-------------13--13p-10-|
 --10s---9---9-------10---------------------------|
 -----------------12------------------------------|
 -------------------------------------------------|
 -------------------------------------------------|

Q E E E E E E W
 
 ---------------------------------|--------------------|
 -----------12--10--/13--12--/15--|--12----------------|
 --14-----------------------------|--------------------|
 ------------9---7--/10---9--/12--|---9----------------|
 ---------------------------------|--------------------|
 ---------------------------------|--------------------|

S S S S S S S S S S S S S S S S
 
 ------------------------------------------|
 ------------------------------------------|
 -------------------------------------9-10-|
 -----------------------------9-10-12------|
 -----------5-7-8-7h-8-10s-12--------------|
 --3-5-7s-8--------------------------------|

S S S S S S S S S S S S S S S S E E E E E E E E
 
 --------------------------12-13-15-12-13-15-17-15-|--------------------------|
 --------12-13-15-12-13-15-------------------------|--------------------------|
 --12-14-------------------------------------------|--------------------------|
 --------------------------------------------------|--3--3--3--3--3--3--3--3--|
 --------------------------------------------------|--3--3--3--3--3--3--3--3--|
 --------------------------------------------------|--1--1--1--1--1--1--1--1--|

[E] [E] [E] [E] [E] [E] [E] [E] [E] [E] [E] [E] [E] [E] [E] [E]  
 
 --------------------------|--------------------------|
 --------------------------|--------------------------|
 --5--5--5--5--5--5--5--5--|--------------------------|
 --5--5--5--5--5--5--5--5--|--3--3--3--3--3--3--3--3--|
 --3--3--3--3--3--3--3--3--|--3--3--3--3--3--3--3--3--|
 --------------------------|--1--1--1--1--1--1--1--1--|

S S S S S S S S S S S S S S S S
 
 --------------------------------------------------|
 --17-17-17-17-17-17-17-17-17-17-15-15-13-13-13-13-|
 --------------------------------------------------|
 --14-14-14-14-14-14-14-14-14-14-12-12-10-10-10-10-|
 --------------------------------------------------|
 --------------------------------------------------|

S S S S S S S S S S S S S S S S Q Q Q Q
 
 --------------------------------------------------|--------------------------|
 --10-10-10-10-10-10-10-10-10-10-10-10-10-10-10-10-|--17----17----15----15----|
 --------------------------------------------------|--------------------------|
 ---7--7--7--7--7--7--7--7--7--7--7--7--7--7--7--7-|--14----14----12----12----|
 --------------------------------------------------|--------------------------|
 --------------------------------------------------|--------------------------|

S S S S S S S S S S S S S S S S
 
 --------------------------------------------------|
 --12-12-12-12-12-12-12-12-13-13-13-13-13-13-13-13-|
 --------------------------------------------------|
 ---9--9--9--9--9--9--9--9-10-10-10-10-10-10-10-10-|
 --------------------------------------------------|
 --------------------------------------------------|

S S S S S S S S S S S S S S E
 
 -----------------------------------------------|
 --15-15-15-15-15-15-15-15-17-17-17-17-17-17----|
 -----------------------------------------------|
 --12-12-12-12-12-12-12-12-14-14-14-14-14-14----|
 -----------------------------------------------|
 -----------------------------------------------|

[E] [E] [E] [E] [E] [E] [E] [E] [E] [E] [E] [E] [E] [E] [E] [E]  
 
 --------------------------------|--------------------------|
 --x--x--18--18--18--18--18--18--|--------------------------|
 --x--x--------------------------|--5--5--5--5--5--5--5--5--|
 --x--x--15--15--15--15--15--15--|--5--5--5--5--5--5--5--5--|
 --------------------------------|--3--3--3--3--3--3--3--3--|
 --------------------------------|--------------------------|

[E] [E] [E] [E] [E] [E] [E] [E] [E] [E] [E] [E] [E] [E] [E] [E]  
 
 --------------------------|--------------------------|
 --------------------------|--------------------------|
 --------------------------|--5--5--5--5--5--5--5--5--|
 --3--3--3--3--3--3--3--3--|--5--5--5--5--5--5--5--5--|
 --3--3--3--3--3--3--3--3--|--3--3--3--3--3--3--3--3--|
 --1--1--1--1--1--1--1--1--|--------------------------|

[E] [E] [E] [E] [E] [E] [E] [E] [E] [E] [E] [E] [E] [E] [E] [E]  
 
 --------------------------|--------------------------|
 --------------------------|--------------------------|
 --------------------------|--5--5--5--5--5--5--5--5--|
 --3--3--3--3--3--3--3--3--|--5--5--5--5--5--5--5--5--|
 --3--3--3--3--3--3--3--3--|--3--3--3--3--3--3--3--3--|
 --1--1--1--1--1--1--1--1--|--------------------------|

[E] [E] [E] [E] [E] [E] [E] [E] [E] [E] [E] [E] [E] [E] [E] [E]  
 
 --------------------------|--------------------------|-----|-----|-----|-----|
 --------------------------|--------------------------|-----|-----|-----|-----|
 --------------------------|--------------------------|-----|-----|-----|-----|
 --5--5--5--5--5--5--5--5--|--5--5--5--5--5--5--5--5--|-----|-----|-----|-----|
 --5--5--5--5--5--5--5--5--|--5--5--5--5--5--5--5--5--|-----|-----|-----|-----|
 --3--3--3--3--3--3--3--3--|--3--3--3--3--3--3--3--3--|-----|-----|-----|-----|
 -----|-----|-----|-----|-----|-----|-----|-----|-----|-----|-----|-----||
 -----|-----|-----|-----|-----|-----|-----|-----|-----|-----|-----|-----||
 -----|-----|-----|-----|-----|-----|-----|-----|-----|-----|-----|-----||
 -----|-----|-----|-----|-----|-----|-----|-----|-----|-----|-----|-----||
 -----|-----|-----|-----|-----|-----|-----|-----|-----|-----|-----|-----||
 -----|-----|-----|-----|-----|-----|-----|-----|-----|-----|-----|-----||

Duration Legend
 
 ---------------

W - whole
H - half
Q - quarter
E - 8th
S - 16th
T - 32nd
X - 64th
. - note dotted
|-n-| - n-tuplets
Tablature Legend
 
 ----------------

L - tied note
x - dead note
g - grace note
(n) - ghost note
> - accentuded note
NH - natural harmonic
AH - artificial harmonic
TH - tapped harmonic
SH - semi harmonic
PH - pitch harmonic
h - hammer on
p - pull off
b - bend
br - bendRelease
pb - preBend
pbr - preBendRelease
brb - bendReleaseBend
\n/ - tremolo bar dip
\n - tremolo bar dive
-/n - tremolo bar Release up
/n\ - tremolo bar inverted dip
/n - tremolo bar return
-\n - tremolo bar Release down
S - shift slide
s - legato slide
/ - slide into from below or out of upwards
\ - slide into from above or out of downwards
~ - vibrato
W - wide vibrato
tr - trill
TP - tremolo picking
T - tapping
S - slap
P - pop
< - fade in
^ - brush up
v - brush down

Important: The song above is NOT stored on the Chordie server. The original song is hosted at www.guitaretab.com. Chordie works as a search engine and provides on-the-fly formatting. Chordie does not index songs against artists'/composers' will. To remove this song please click here.

Text color:
Chord color:
Chord grids: 
Font size:    
Page size: 

E
Rate #1 of 2 versions

Login - add to songbook

SHARE PAGE  



You need to log in to post comments