Guitar Tabs, Chords and Lyrics
Major upgrade!! After one year development the new version of Chordie is now online! Please give feedback.


A vie  Corneille

 
 -------------------------------------------------------------------------

À VIE - Corneille
 
 -------------------------------------------------------------------------

Tabbed by: Kengus
This is quite accurate I think. The only maybe is the C chord after the
Gm7, cause it's really tough to hear. Maybe one day I'll try the solo tab,
it's a kind of Spanish-style guitar solo. Go have fun.
Standard Tuning
VERSE1 (repeat this x2)
[Fmaj7] [Em7] [Dm7]  
 
 e|------0-----------0------------0-----------0------------1-----------1--|
 B|--1-----1-----1-----1------3-----3-----3-----3------1-----1-----1------|
 G|----2-----2-----2-----2------0-----0-----0-----0------2-----2-----2----|
 D|--------------------------------------------------0-----------0--------|
 A|-----------------------------------------------------------------------|
 E|-1----------1------------0-----------0---------------------------------|

[Cmaj7] [Bm11b5] [Em7]  
 
 e|-------------------------------------0--------------0------------------|
 B|-1----------0-----------0----3-----3---3--------3-----3----------------|
 G|---2----0-----0-------0---0--2---2-------2--------0-----0--------------|
 D|----------2-----2---2--------3-3-----------3--------------2h3p2-1h2----|
 A|------3-----------3----------2-----------------------------------------|
 E|----------------------------------------------0------------------------|

VERSE1 with lyrics
[Fmaj7] Je t'arrive d'un tour [Em7]de la terre
[Dm7] J'ai pris de l'or et des ga[Cmaj7]lons ma chère
Mais[Bm11b5] rien ne te vaut même pas toute [Em7]la gloire de ce monde
[Fmaj7] J'ai fait un tour de chant de [Em7]ma peine Fmaj7 = 133210
Dm7 Cmaj7 Em7 = 022030
J'en ai oublié de chanter je t'aime Dm7 = xx0211
Bm11b5 Cmaj7 = x32000
Mais avec toi, à part le dire Bm11b5 = x23230
[Em7]Très peu de choses comptent
CHORUS (strum the chords)
À vi[Fmaj7]e, c'est de[Em7] sang qu'on s'aimera
À vie[Dm7], rien de [Em7]moins je promets ça
La v[Fmaj7]ie, c'est le [Em7]temps qu'on restera
Dm7 Am Asus2-Am Gm7 C Asus2 = x02200
À vie, à vie Gm7 = 353333
VERSE2 (same picking pattern as verse1)
[Fmaj7] Je prie toujours que le diable ou[Em7]blie nos terres
[Dm7] Et que les hommes étouffent leurs [Cmaj7]cris de guerre
Mai[Bm11b5]s tu mérites une courte pause de mes hymnes à la[Em7] vie
Simplement pour te dire qu'à vie
CHORUS
À vi[Fmaj7]e, c'est de [Em7]sang qu'on s'aimera
À vi[Dm7]e, rien de [Em7]moins je promets ça
La v[Fmaj7]ie, c'est le [Em7]temps qu'on restera
À vi[Dm7]e, je te promets [Am]ça
À vie, à vie, à vie...[G] [Am] [(Am7)] [G] [Am] [G] [Fmaj7] [Bm11b5] [Em7]
INTERLUDE
[Fmaj7] [Em7] [Dm7] C'est le [Em7]temps qu'on s'aimera à [Fmaj7]vie
[Em7] [Dm7] [Am] [Gm7] [C] À vie....
SOLO
[Fmaj7] [Em7] [Dm7] [Cmaj7] [Bm11b5] [Em7]  
[Fmaj7] [Em7] [Dm7] [Cmaj7] [Bm11b5] [Em7]  
CHORUS
À vi[Fmaj7]e, c'est de [Em7]sang qu'on s'aimera
À vi[Dm7]e, rien de [Em7]moins je promets ça
La v[Fmaj7]ie, c'est le [Em7]temps qu'on restera
À vi[Dm7]e, à vie, à [Am]vie...[Gm7] [C]
OUTRO (repeat until end, fade out)
[Fmaj7] [Em7]  
[Dm7] [Em7]  
[Fmaj7] [Em7]  
[Dm7] [Am] [Gm7] [C]  
=======================================================================
Comment, rate, appreciate!

Important: The song above is NOT stored on the Chordie server. The original song is hosted at www.guitaretab.com. Chordie works as a search engine and provides on-the-fly formatting. Chordie does not index songs against artists'/composers' will. To remove this song please click here.

Text color:
Chord color:
Chord grids: 
Font size:    
Page size: 

Am C Cmaj7 Dm7 Em7 Fmaj7 G Gm7
Rate #2 of 3 versions

Jango Player

Login - add to songbook

SHARE PAGE  




You need to log in to post comments