Guitar Tabs, Chords and Lyrics
Major upgrade!! After one year development the new version of Chordie is now online! Please give feedback.


Hanginaround  Counting Crows

Intro:
 
 e|---------------------------------------------------------------|
 B|---------------------------------------------------------------|
 G|---------------------------------------------------------------|
 D|-----------3-------------------------------3-----------------2-|
 A|---0--3--5---5---3--2--3-5-3-2-----0--3--5---5-3h5p3--3h5p3-5-3|
 E|1-------------------------------1------------------------------|

Secondary Riff (played in chorus):
 
 e|-------7---7/8----7--------------------------------------|
 b|---/8----8-----8-----8-----------------------------------|
 G|---------------------------------------------------------|
 D|---------------------------------------------------------|
 A|---------------------------------------------------------|
 E|---------------------------------------------------------| 

[F]She sat right [C]down on the [G]sofa
And says where have you [F]been
I've been [C]waiting for you[G]
And l[F]ast night I h[C]ad something so [G]good
These days get so long [F]and I've got [C]nothing to d[G]o
Ive been hanging[F] around this [C]town on a [G]corner
Ive been bummin[F] around this old [C]town so l[G]ong
Ive been hanging[F] around this [C]town on a [G]corner
Ive been bummin[F] around this old [C]town for way [G]too long
[F]We spent all [C]day getting sobe[G]r
Just hiding from day[F]light
And [C]watching tv [G] (...fading away)
[F]We just look a l[C]ot better in the [G]blue light
Well you know I gotta [F]get out
But [C]Im stuck so tight
[G]Weighed by the chains that keep me
, hanging[F] around this [C]town on a [G]corner
I've been bummi[F]n around this old[C] town so [G]long
I've been hangin[F]g around this[C] town on a[G] corner
I've been bummi[F]n around this old[C] town for way[G] too long
Solo:
 
 e|---------------------------------------------------------------|
 B|---------------------------------------------------------------|
 G|---------------------------------------------------------------|
 D|-----------3-------------------------------3-----------------2-|
 A|---0--3--5---5---3--2--3-5-3-2-----0--3--5---5-3h5p3--3h5p3-5-3|
 E|1-------------------------------1------------------------------|

Rest of solo : A minor pentatonic!
[F]This girl lis[C]tens to band pla[G]ys
She says where have you been
[F]Been laying right [C]here on the floor[G]
[F]I got all th[C]is time to be [G]waiting for what is mine
To be [F]hated for what [C]I am after the[G] light has faded
Ive been hanging[F] around this [C]town on a [G]corner
Ive been bummin[F] around this old [C]town so l[G]ong
Ive been hanging[F] around this [C]town on a [G]corner
Ive been bummin[F] around this old [C]town for way [G]too long, hey
Ive been hanging[F] around this [C]town on a [G]corner
Ive been bummin[F] around this old [C]town for way [G]too long
Ive been hanging[F] around this [C]town on a [G]corner
I've been bummin[F] around this old [C]town for way,[G] way, way, way, too [F]long[C]
[G] way, way, way, way, too [F]long[C]
[G] way, way, way, way, too [F]long[C]
[G] way, way, way, way, too [F]long[C]
[G] way, way, way, way, too [F]long[C]
[G] way, way, way, way, too [F]long[C]
[G] way, way, way, way, too [F]long[C]

Important: The song above is NOT stored on the Chordie server. The original song is hosted at www.guitaretab.com. Chordie works as a search engine and provides on-the-fly formatting. Chordie does not index songs against artists'/composers' will. To remove this song please click here.

Text color:
Chord color:
Chord grids: 
Font size:    
Page size: 

C F G
Rate #2 of 11 versions

Jango Player

Login - add to songbook

SHARE PAGE  



You need to log in to post comments