Guitar Tabs, Chords and Lyrics
Major upgrade!! After one year development the new version of Chordie is now online! Please give feedback.


New Frontier  Counting Crows

Standard tuning E A D G B E
Riff 1: (there are variations throughout)
[C] [Gm] [Bb] [F]  
 
 E-|------------------------------------------------------------------|-
 B-|------------------------------------------------------------------|-
 G-|-----5-5-3-3-2-2-----3-3-2-2-0-0-----3-3-2-2-0-0-----0---0---0-2--|-
 D-|-----------------------------------------------------------3------|-
 A-|-3-3-----------------------------1-1------------------------------|-
 E-|-----------------3-3-----------------------------1-1--------------|-

Intro: (one guitar plays riff 1, another plays riff 2 - below)
Come on children mind the gap
Riff 2:
[C] [Gm] [Bb] [F]  
 
 E-|-15--------------15--13-12-------13-12----13-12--------15-----15--|-
 B-|---------------------------13----------13-------13----------------|-
 G-|---------------------------------------------------12-----12------|-
 D-|------------------------------------------------------------------|-
 A-|------------------------------------------------------------------|-
 E-|------------------------------------------------------------------|-

[C] [Gm] [Bb] [F]  
 
 E-|-15--------15-17-18--------------18-17----18-17--------21-----21--|-
 B-|---------------------------------------18-------18----------------|-
 G-|---------------------------------------------------17-----17------|-
 D-|------------------------------------------------------------------|-
 A-|------------------------------------------------------------------|-
 E-|------------------------------------------------------------------|-

Verse 1: (one guitar plays riff 1, another plays the chords)
[C]Miracle people with m[Gm]arvelous hair
And a [Bb]knack to do anything [F]better than anyone
[C]I got a home with e[Gm]lectrical air
And I [Bb]live in a world [F]smaller than anyone's
But [C]I got a line on a [Gm]new frontier
[Bb]I got a line on the [F]new America
[C]All of the people are v[Gm]anishing here
[Bb]I could be huge if I [F]could just get
Chorus 1:
[Gm] From the [Am]outside of ever[Dm]ything to the [C]inside of you
[Gm] From the [Am]outside of ever[Dm]ything to the [C]inside of you
Verse 2: (with riff 1)
[C]Purest Aluminum [Gm]people are walking the [Bb]streets of London [F]so hysterical
[C]Nobody here gets a [Gm]word that I say
And the [Bb]problems, I'm told, are [F]more than medical
But [C]I got a friend from the [Gm]new frontier
And [Bb]Galen, she says, "This is [F]not America.
[C]You need a girl with el[Gm]ectrical hair
And the [Bb]word that you wanted was [F]aluminium."
Chorus 2:
[Gm] From the [Am]outside of ever[Dm]ything to the [C]inside of you
[Gm] From the [Am]outside of ever[Dm]ything to the [C]inside
Solo chords: Key of F - play around with riff 2.
C Gm Bb F (play through four times)
Verse 3:
[C]I was in bed with a [Gm]girl at the end of the [Bb]world
She said "I'm [F]go[Gm]ing [C]home. [Gm]You should come home [Bb]too."[F]
But [C]I'm at the end of the [Gm]new frontier
[Bb]Here at the edge of the [F]flat earth ending
[C]I'm getting off to get [Gm]lost in the air
At the [Bb]end of the world where the [F]light is bending
Chorus 3:
[Gm] From the [Am]outside of ever[Dm]ything to the [C]inside of you
[Gm] From the [Am]outside of ever[Dm]ything to the [C]inside of you
[Gm] From the [Am]outside of ever[Dm]ything to the [C]inside of you
[Gm] From the [Am]outside of ever[Dm]ything to the [C]inside
Outro chords: (repeat as necessary)
[C] [Gm] [Bb] [F] 

Important: The song above is NOT stored on the Chordie server. The original song is hosted at www.guitaretab.com. Chordie works as a search engine and provides on-the-fly formatting. Chordie does not index songs against artists'/composers' will. To remove this song please click here.

Text color:
Chord color:
Chord grids: 
Font size:    
Page size: 

Am Bb C Dm F Gm
Rate #0 of 3 versions

Jango Player

Login - add to songbook

SHARE PAGE  




You need to log in to post comments