Guitar Tabs, Chords and Lyrics
Server problems seems to be fixed. Chordie has been experiencing problems with songs disappearing. These issues now seems to be fixed, but still verifying the fix. If you find anything strange, please email admin@chordie.com.


Sweetest Maleficia   Cradle of Filth

 
 d:-------------------------------------------------------------------|
 A:-------------------------------------------------------------------|
 F:o-----------------------------------------------------------------o|
 C:o-----------------------------------------------------------------o|
 G:---4--7-7-7-7--4--7-7-7-8-9--4--7-7-7-7--4--7-6-5------------------|
 D:---2--0-0-0-0--2--0-0-0-6-7--2--0-0-0-0--2--5-4-3------------------|

 


 


 


 (00:56) Riff B


 


 

 
 d:-------------------------------------------------------------------|
 A:-------------------------------------------------------------------|
 F:-------------------------------------------------------------------|
 C:---3-3-3-3-3-3-3-3-3-3-3-3-5-5-5-5-3-3-3-3-3-3-3-3-3-3-3-3-6-6-6-6-|
 G:-------------------------------------------------------------------|
 D:-------------------------------------------------------------------|
 d:-------------------------------------------------------------------|
 A:-------------------------------------------------------------------|
 F:-------------------------------------------------------------------|
 C:---3-3-3-3-3-3-3-3-3-3-3-3-6-6-6-6-5-5-5-5-4h5p4-4-4-4-4-4-4-4-----|
 G:-------------------------------------------------------------------|
 D:-------------------------------------------------------------------|
 d:-------------------------------------------------------------------|
 A:-------------------------------------------------------------------|
 F:-------------------------------------------------------------------|
 C:---3-3-3-3-3-3-3-3-3-3-3-3-5-5-5-5-3-3-3-3-3-3-3-3-3-3-3-3-6-6-6-6-|
 G:-------------------------------------------------------------------|
 D:-------------------------------------------------------------------|
 d:-------------------------------------------------------------------|
 A:-------------------------------------------------------------------|
 F:----------------------------------------------------6--------------|
 C:---3-3-3-3-3-3-3-3-3-3-3-3-6-6-6-6----------------5-4--------------|
 G:-----------------------------------5s6s5-5--4--3--3----------------|
 D:-----------------------------------3s4s3-3--2--1-------------------|

 


 


 


 (01:20) Riff C


 


 

 
 d:-------------------------------------------------------------------|
 A:-------------------------------------------------------------------|
 F:-------------------------------------------------------------------|
 C:-------------------------------------------------------------------|
 G:---4---5-5-4--5-5-4-5-6--6-6-6-6-5-6-5--5--6-6-5-5-----------------|
 D:---2---2-2-2--2-2-2-2-3--3-3-3-3-3-3-3--3--3-3-3-3-----------------|
 d:-------------------------------------------------------------------|
 A:-------------------------------------------------------------------|
 F:-------------------------------------------------------------------|
 C:-------------------------------------------------------------------|
 G:---4---5-5-4--5-5-4-5-6--6-6-6-6-5-6-5--5--3--4-4-3-4--------------|
 D:---2---2-2-2--2-2-2-2-3--3-3-3-3-3-3-3--3--1--1-1-1-1--------------|
 d:-------------------------------------------------------------------|
 A:-------------------------------------------------------------------|
 F:-------------------------------------------------------------------|
 C:-------------------------------------------------------------------|
 G:---4---5-5-4--5-5-4-5-6--6-6-6-6-5-6-5--5--6-6-5-5-----------------|
 D:---2---2-2-2--2-2-2-2-3--3-3-3-3-3-3-3--3--3-3-3-3-----------------|
 d:-------------------------------------------------------------------|
 A:-------------------------------------------------------------------|
 F:-------------------------------------------------------------------|
 C:-------------------------------------------------------------------|
 G:---4---5-5-4--5-5-4-5-6--6-6-6-6-5-6-5--5--3--4-4-3-4--------------|
 D:---2---2-2-2--2-2-2-2-3--3-3-3-3-3-3-3--3--1--1-1-1-1--------------|

 


 


 


 (01:44) Riff D


 


 

 
 d:-------------------------------------------------------------------|
 A:-------------------------------------------------------------------|
 F:o-----------------------------------------------------------------o|
 C:o-9--9-9-7-9-10-9--9-9-9--9-9--7-7-6-5--9-9-7-9-10-9--3-3-4-3-----o|
 G:--7--7-7-5-7-8--7--7-7-7--7-7--5-5-4-3--7-7-5-7-8--7--1-1-2-1-5-4--|
 D:--------------------------------------------------------------3-2--|

 


 


 


 (02:02) Riff E


 


 

 
 d:-------------------------------------------------------------------|
 A:-------------------------------------------------------------------|
 F:-------------------------------------------------------------------|
 C:---9--9-9-7-9-10-9--9-9-9--9-9--7-7-6-5--9-9-7-9-10-9--9-----------|
 G:---7--7-7-5-7-8--7--7-7-7--7-7--5-5-4-3--7-7-5-7-8--7--7-7-7-7-7---|
 D:-------------------------------------------------------------------|
 d:-------------------------------------------------------------------|
 A:-------------------------------------------------------------------|
 F:-------------------------------------------------------------------|
 C:--8---------7------------------------------------------------------|
 G:--6-6-6-6-6-5------------------------------------------------------|
 D:-------------------------------------------------------------------|

 


 


 


 (02:08) Riff F


 


 

 
 d:-------------------------------------------------------------------|
 A:-------------------------------------------------------------------|
 F:-------------------------------------------------------------------|
 C:-------------------------------------------------------------------|
 G:---4--7-7-7-7--4--7-7-7-8-9--4--7-7-7-7--7-6-----------6--4--7-7-7-|
 D:---2--0-0-0-0--2--0-0-0-6-7--2--0-0-0-0------8-7-8-7-8----2--0-0-0-|
 d:-------------------------------------------------------------------|
 A:-------------------------------------------------------------------|
 F:-------------------------------------------------------------------|
 C:-------------------------------------------------------------------|
 G:--7--4--7-7-7-8-9--4--7-7-7-7--4--7-6-5----------------------------|
 D:--0--2--0-0-0-6-7--2--0-0-0-0--2--5-4-3----------------------------|

 


 


 


 (02:20) Riff G


 


 

 
 d:-------------------------------------------------------------------|
 A:-------------------------------------------------------------------|
 F:o------------------------------------------------------------------|
 C:o--3-3-3-3-3-3-3-3-3-3-3-3-5-5-5-5-3-3-3-3-3-3-3-3-3-3-3-3-6-6-6-6-|
 G:-------------------------------------------------------------------|
 D:-------------------------------------------------------------------|
 d:-------------------------------------------------------------------|
 A:-------------------------------------------------------------------|
 F:-------------------------------------------------------------------|
 C:---3-3-3-3-3-3-3-3-3-3-3-3-6-6-6-6-5-5-5-5-4h5p4-4-4-4-4-4-4-4-----|
 G:-------------------------------------------------------------------|
 D:-------------------------------------------------------------------|
 d:-------------------------------------------------------------------|
 A:-------------------------------------------------------------------|
 F:-------------------------------------------------------------------|
 C:---3-3-3-3-3-3-3-3-3-3-3-3-5-5-5-5-3-3-3-3-3-3-3-3-3-3-3-3-6-6-6-6-|
 G:-------------------------------------------------------------------|
 D:-------------------------------------------------------------------|
 d:-------------------------------------------------------------------|
 A:-------------------------------------------------------------------|
 F:------------------------------------------------------------------o|
 C:---3-3-3-3-3-3-3-3-3-3-3-3-6-6-6-6--------------------------------o|
 G:-----------------------------------3-3-3-4-4-4-3-3-3-2-2-2---------|
 D:-------------------------------------------------------------------|

 


 


 


 (03:44) Riff H


 


 

 
 d:-------------------------------------------------------------------|
 A:-------------------------------------------------------------------|
 F:-------------------------------------------------------------------|
 C:-----------------------------6---5-----------------5-5-5-5-4-4---0-|
 G:---------------------------------------------------3-3-3-3-2-2-2---|
 D:---0-0-2-0-3-0-6-5-0-0-2-0-4---3---0-0-2-0-3-0-6-5-----------------|

 


 


 


 (03:56) Riff I


 


 

 
 d:-------------------------------------------------------------------|
 A:-------------------------------------------------------------------|
 F:o-----------------------------------------2-4-2-0--0-2-0----------o|
 C:o--0-3-2-0-2-0--6--6-6-6-6--6-0-3-2-0-2-0----------------3--------o|
 G:-------------------------------------------------------------------|
 D:----------------4--4-4-4-4--4--------------------------------------|

 


 | |


 

 
 d:-------------------------------------------------------------------|
 A:-------------------------------------------------------------------|
 F:o-----------------------------------------------------------------o|
 C:o--0-3-2-0-2-0--6--6-6-6-6--6-0-3-2-0-2-0-3-5-3-2--2-3-2----------o|
 G:---------------------------------------------------------2---------|
 D:----------------4--4-4-4-4--4--------------------------------------|

 


 


 


 (04:08) Riff J


 


 

 
 d:-------------------------------------------------------------------|
 A:----------------9--9-9-9-9--9--------------10-12p10p8-8-10p8p6-----|
 F:---7-10-9-7-9-7---------------7-10-9-7-9-7-------------------------|
 C:----------------6--6-6-6-6--6--------------------------------------|
 G:-------------------------------------------------------------------|
 D:-------------------------------------------------------------------|

 


 | |


 

 
 d:-------------------------------------------------------------------|
 A:----------------9--9-9-9-9--9--------------------------------------|
 F:---7-10-9-7-9-7---------------7-10-9-7-9-7-10-12p10p9-9-10p9-------|
 C:----------------6--6-6-6-6--6--------------------------------10----|
 G:-------------------------------------------------------------------|
 D:-------------------------------------------------------------------|

 


 


 


 (04:20) Riff K (lead over Riff C)


 


 

 
 d:-----------------------------7---7---9---9---10---10---12----12----|
 A:---7-7-7-7-9-9-9-9-10-7-10-7---7---7---7---7----7----7-------------|
 F:----------------------------------------------------------11-------|
 C:-------------------------------------------------------------------|
 G:-------------------------------------------------------------------|
 D:-------------------------------------------------------------------|
 d:-----14----14--------21--17--------------------------21-17---------|
 A:-----------------------------19----------------------------19------|
 F:--11----11----11-----------------18---------------------------18---|
 C:-------------------------------------19--18------------------------|
 G:--------------------------------------------19--18-----------------|
 D:-------------------------------------------------------------------|
 d:-------------------------------------------------------------------|
 A:-------------------------------------------------------------------|
 F:-------------------------------------------------------------------|
 C:--19-18------------------------4*-w/bar----0-w/bar-----------------|
 G:--------19-18-16---------------------------------------------------|
 D:-----------------17-16-14------------------------------------------|
 d:-----------------------------------17p0-16p0-14p0-16p0-17p0-16p0---|
 A:-----14--12--14--15-14h15p14-12-14---------------------------------|
 F:--11---------------------------------------------------------------|
 C:-------------------------------------------------------------------|
 G:-------------------------------------------------------------------|
 D:-------------------------------------------------------------------|
 d:--19p0-17p0-17p0-16p0-14p0-16p0-17p0-16p0--------------------------|
 A:-------------------------------------------17fb-fb-----------------|
 F:-------------------------------------------------------------------|
 C:-------------------------------------------------------------------|
 G:-------------------------------------------------------------------|
 D:-------------------------------------------------------------------|
 d:--12--10--12--15-14h15p14-12-14--17p0-16p0-14p0-16p0-17p0-16p0-----|
 A:--14--12--14--17-15h17p15-14-15------------------------------------|
 F:-------------------------------------------------------------------|
 C:-------------------------------------------------------------------|
 G:-------------------------------------------------------------------|
 D:-------------------------------------------------------------------|
 d:--19p0-17p0--------------------------------------------------------|
 A:------------14s11-16h18p16p14s11-16h18p16p14s11--[17]fb-[17]fb-----|
 F:-------------------------------------------------------------------|
 C:-------------------------------------------------------------------|
 G:-------------------------------------------------------------------|
 D:-------------------------------------------------------------------|

 


 


 


 (05:32) Riff L


 


 

 
 d:-------------------------------------------------------------------|
 A:-------------------------------------------------------------------|
 F:-------------------------------------------------------------------|
 C:-------------------------------------------------------------------|
 G:---4--7-7-7-7--4--7-7-7-8-9--4--7-7-7-7--4--7-6-5--4--7-7-7-7--4---|
 D:---2--0-0-0-0--2--0-0-0-6-7--2--0-0-0-0--2--5-4-3--2--0-0-0-0--2---|
 d:-------------------------------------------------------------------|
 A:-------------------------------------------------------------------|
 F:-------------------------------------------------------------------|
 C:-------------------------------------------------------------------|
 G:--7-7-7-8-9--4--7-7-7-7--4----4--7-7-7-7--4--7-7-7-8-9--4--7-7-7-7-|
 D:--0-0-0-6-7--2--0-0-0-0--2----2--0-0-0-0--2--0-0-0-6-7--2--0-0-0-0-|
 d:-------------------------------------------------------------------|
 A:-------------------------------------------------------------------|
 F:-------------------------------------------------------------------|
 C:-------------------------------------------------------------------|
 G:--4--7-6-5--4--7-7-7-7--4--7-7-7-8-9--4--7-7-7-7--4--7-6-5---------|
 D:--2--5-4-3--2--0-0-0-0--2--0-0-0-6-7--2--0-0-0-0--2--5-4-3---------|


Important: The song above is NOT stored on the Chordie server. The original song is hosted at www.guitaretab.com. Chordie works as a search engine and provides on-the-fly formatting. Chordie does not index songs against artists'/composers' will. To remove this song please click here.

This song is displayed as text-only. Transposing and tuning is only available for chordpro-songs.
Rate #1 of 2 versions

Login - add to songbook

SHARE PAGE  



You need to log in to post comments