Guitar Tabs, Chords and Lyrics
Server problems seems to be fixed. Chordie has been experiencing problems with songs disappearing. These issues now seems to be fixed, but still verifying the fix. If you find anything strange, please email admin@chordie.com.


The Promise of Fever   Cradle of Filth

 
 C |--------------------------------------------------------------------------|
 F |--------------------------------------------------------------------------|
 A#|---9-----8---9------------------------9-----8---9-------------------------|
 D#|---9-----8---9-----888888888888-------9-----8---9-----888888----9-8-7-8---|
 G |---7-----6---7-----888888888888-------7-----6---7-----888888----9-8-7-8---|
 C |---7-----6---7-----666666666666-------7-----6---7-----666666----7-6-5-6---|

 


 


 Riff 2


 

 
 C |------------------------------------------------------------------|
 F |------------------------------------------------------------------|
 A#|-------------------------------------------888888888888888--------|
 D#|---7-7---7---7-7---7---9-9---9--1010--10---888888888888888--------|
 G |---7-7---7---7-7---7---9-9---9--1010--10---666666666666666--------|
 C |---5-5---5---5-5---5---7-7---7---8-8---8--------------------------|

 


 pm . . . . . . . .


 


 

 
 C |----------------------------------------------------------------|
 F |----------------------------------------------------------------|
 A#|-------------------------------------------8888888888----9--11--|
 D#|---7-7---7---7-7---7---9-9---9--1010--10---8888888888----9--11--|
 G |---7-7---7---7-7---7---9-9---9--1010--10---6666666666----7---9--|
 C |---5-5---5---5-5---5---7-7---7---8-8---8-----------------7---9--|

 


 


 Repeat Riff 1


 Repeat Riff 2


 


 Riff 3


 

 
 C |----------------------------------------------------------------------------------|
 F |----------------------------------------------------------------------------------|
 A#|----------------------------------------------------------------------------------|
 D#|----------------------------------------------------------------------------------|
 G |---999------------------999------------------888-777-888-555-888-101010-888-777---|
 C |-------777-101010-999-------777-101010-999----------------------------------------|
 C |-------------------------------------------------------------------|
 F |-------------------------------------------------------------------|
 A#|-------------------------------------------------------------------| X 2
 D#|---------------------------------------------7----------10-----4---|
 G |---999------------------999------------------7----------10-----4---|
 C |-------777-101010-999-------777-101010-999---5-----------8-----2---|

 


 


 Riff 4


 

 
 C |-----------------------------------------------------------|
 F |-----------------------------------------------------------|
 A#|-----------------------------------------------------------|
 D#|---4-4-7-6--4-4-6-4--3/2---4-4-7-6--4-4--------------------|
 G |---4-4-7-6--4-4-6-4--3/2---4-4-7-6--4-4--------------3-2---|
 C |---2-2-5-4--2-2-4-2--1/2---2-2-5-4--2-2--5-4-2-4-5-4-------|

 


 pm . . . . . . . . . . . . . . . . . .


 


 

 
 C |-----------------------------------------------------------|
 F |-----------------------------------------------------------|
 A#|-----------------------------------------------------------| X 2
 D#|---4-4-7-6--4-4-6-4--3/2---777777---7----666666---6--|
 G |---4-4-7-6--4-4-6-4--3/2---777777-----------666666---------|
 C |---2-2-5-4--2-2-4-2--1/2---555555-----------444444---------|

 


 pm . . . . . .


 


 Repeat Riff 1


 Repeat Riff 2


 Repeat Riff 1


 Repeat Riff 2


 Repeat Riff 3


 Repeat Riff 4


 


 Riff 5


 

 
 C |---------------------------------------------------------------------------------|
 F |---------------------------------------------------------------------------------|
 A#|---7/9--10---9-----7/9--10---12--/13\12---7/9--10---9-----7/9--10---13--\12\10---|X 2
 D#|---7/9--10---9-----7/9--10---12--/13\12---7/9--10---9-----7/9--10---13--\12\10---|
 G |---5/7---8---7-----5/7---8---10--/11\10---5/7---8---7-----5/7---8---11--\10\-8---|
 C |---5/7---8---7-----5/7---8---10--/11\10---5/7---8---7-----5/7---8---11--\10\-8---|

 


 


 Riff 6


 

 
 C |-----------------------------------------------------------------------|
 F |-----------------------------------------------------------------------|
 A#|-----------------------------------------------------------------------|X 2
 D#|------4~------6~------7~------8~-------4~-------6~------7~------8~-----|
 G |-----------------------------------------------------------------------|
 C |-2--2----4--4----5--5----6--6-----2--2-----4--4----5--5----6--6--------|

 


 


 Riff 7


 

 
 C |-------------------------------------------------------------------|
 F |-------------------------------------------------------------------|
 A#|--11------10-------7--------------11------10-------7---------------|X 2
 D#|--11------10-------7-------8------11------10-------7-------8-------|
 G |---9-------8-------5-------8-------9-------8-------5-------8-------|
 C |---9-------8-------5-------6-------9-------8-------5-------6-------|

 


 


 Riff 8a


 

 
 C |------------------------------------|
 F |------------------------------------|
 A#|------------------------------------|
 D#|---4-~~~~-----------7-7-7---6-6-6---|
 G |---4-~~~~-----------7-7-7---6-6-6---|
 C |---2-~~~~-----------5-5-5---4-4-4---|

 


 


 Riff 8b


 

 
 C |--------------------------------------------------------------------------|
 F |-----------7-~-----6-~----10--8-10----------------------------------------|
 A#|--------------------------------------------------------------------------|
 D#|---4-------4-~-----3-~-----7--6--7-----7-7-7--/4-~-3-~-6-6-6---/3-~-2-~---|
 G |---4---4-------4-------4---------------7-7-7-----------6-6-6--------------|
 C |---2---2-------2-------2---------------5-5-5-----------4-4-4--------------|

 


 pm . . . . . . . . .


 


 

 
 C |--------------------------------------------------------------------------|
 F |-----------7-~-----6-~----10--8-10----------------------------------------|
 A#|--------------------------------------------------------------------------|X 4
 D#|---4-4-4---4-~-----3-~-----7--6--7-----7-7-7--/4-~-3-~-6-6-6---/3-~-2-~---|
 G |---4-4-4-------4-------4---------------7-7-7-----------6-6-6--------------|
 C |---2-2-2-------2-------2---------------5-5-5-----------4-4-4--------------|

 


 pm . . . . . . . . . . .


 


 Repeat Riff 5


 Repeat Riff 6


 Repeat Riff 7


 Repeat Riff 8a


 


 Orchestral Part


 


 Repeat Riff 1


 Repeat Riff 2


 Repeat Riff 1


 Repeat Riff 2


 


 Riff 9


 

 
 C |------------------------------------------------------------|
 F |------------------------------------------------------------|
 A#|---9-------------------------------9~~~~~~~~~~~~~~~~~~------|
 D#|---9-------8-------5-------4-------9~~~~~~~~~~~~~~~~~~------|
 G |---7-------8-------5-------3-------7~~~~~~~~~~~~~~~~~~------|
 C |---7-------6-------3-------2-------7~~~~~~~~~~~~~~~~~~------|


Important: The song above is NOT stored on the Chordie server. The original song is hosted at www.guitaretab.com. Chordie works as a search engine and provides on-the-fly formatting. Chordie does not index songs against artists'/composers' will. To remove this song please click here.

This song is displayed as text-only. Transposing and tuning is only available for chordpro-songs.
Rate #1 of 3 versions

Login - add to songbook

SHARE PAGE  



You need to log in to post comments