Guitar Tabs, Chords and Lyrics
Server problems seems to be fixed. Chordie has been experiencing problems with songs disappearing. These issues now seems to be fixed, but still verifying the fix. If you find anything strange, please email admin@chordie.com.


The Foetus of a New Day Kicking   Cradle of Filth

 
 |-9-----9-----9---|-10-----9-----9---|
 |---7-7---7-7---7-|----7-7---7-7---7-|
 |-----------------|------------------|
 |-----------------|------------------|
 |-----------------|------------------|
 |-----------------|------------------|

 


 | | |


 | Rhythm Guitar | |


 

 
 |-----------------|------------------|
 |-----------------|------------------|
 |-----------------|------------------|
 |-----------------|------------------|
 |-4-----4-----4---|--5-----4-----4---|
 |-2-2-2-2-2-2-2-2-|--2-2-2-2-2-2-2-2-|
 |-----------------|-----------------------|
 |-----------------|-8-h10p8p7---------6-7-|
 |-7-h9p7p6--------|-----------9==---9-----|
 |----------9==----|-----------------------|
 |-----------------|-----------------------|
 |-----------------|-----------------------|

 


 | | |


 | Rhythm guitar | |


 

 
 |-----------------|-----------------------|
 |-----------------|-----------------------|
 |-----------------|-----------------------|
 |-4-----4-----4---|-----------------------|
 |-2-2-2-2-2-2-2-2-|-2--------2--------2-2-|
 |-----------------|-0--0--0--0--0--0--0-0-|

 


 


 [b)]  

 
 |-9-----9-----9---|-10-----9-----9---|
 |---7-7---7-7---7-|----7-7---7-7---7-|
 |-----------------|------------------|
 |-----------------|------------------|
 |-----------------|------------------|
 |-----------------|------------------|

 


 | | |


 | Rhythm Guitar | |


 

 
 |-----------------|------------------|
 |-----------------|------------------|
 |-----------------|------------------|
 |-----------------|------------------|
 |-4-----4-----4---|--5-----4-----4---|
 |-2-2-2-2-2-2-2-2-|--2-2-2-2-2-2-2-2-|
 |-----------------|-7---------------------|
 |-----------------|----8h10p8-7==-----7-8-|
 |-7-h9p7p6--------|-----------------9-----|
 |----------9==----|-----------------------|
 |-----------------|-----------------------|
 |-----------------|-----------------------|

 


 | | |


 | Rhythm Guitar | |


 

 
 |-----------------|-----------------------|
 |-----------------|-----------------------|
 |-----------------|-----------------------|
 |-4-----4-----4---|-----------------------|
 |-2-2-2-2-2-2-2-2-|-2--------2--------2-2-|
 |-----------------|-0--0--0--0--0--0--0-0-|

 


 


 


 Note: in the third and fourth bar of riff 1 a and b the lead guitar plays the notes


 faster than the rhythm guitar. Listen to the song to hear how to play it.


 


 


 


 Riff 2:


 


 [a)]  


 

 
 |-----------------|------------------|-----------------|--------------------|
 |-----------------|------------------|-----------------|--------------------|
 |-7-10-9----------|-7-10-7--9--------|-7-10-9----------|--------------------|
 |-7-10-9----------|-7-10-7--9--------|-7-10-9-----14\\-|--------------------|
 |-5--8-7----------|-5--8-5--7--------|-5--8-7-----14\\-|-----2--------------|
 |-----------------|------------------|------------12\\-|-1-3---4==--3h4p3-1-|

 


 


 


 [b)]  


 

 
 |-----------------|------------------|-----------------|--------------------|
 |-----------------|------------------|-----------------|--------------------|
 |-7-10-9----------|-7-10-7-9---------|-7-10-9----------|--------------------|
 |-7-10-9----------|-7-10-7-9---------|-7-10-9----------|--------------------|
 |-5--8-7-77-77-77-|-5--8-5-7-7-77-77-|-5--8-7-77-77-77-|-----2--------------|
 |--------00-00-00-|----------0-00-00-|--------00-00-00-|-1-3---4==--3h4p3-1-|

 


 


 


 


 Riff 3:


 


 a) (both guitars)


 


 

 
 |-----------------|-----------------|-----------------|-------------------|
 |-----------------|-----------------|-----------------|-------------------|
 |-----------------|-----------------|-------4=--4-----|---------4---------|
 |-4-7-6-7=--6-7-6-|-4-7-6-------7-6-|-4-7-6-------7-6-|---7-6-----6h7p6---|
 |-----------------|-------7=--7-----|-----------------|-5-----5---------7-|
 |-----------------|-----------------|-----------------|-------------------|

 


 


 


 b) (guitars playing different things)


 

 
 |-----------------|-----------------|-----------------|-------------------|
 |-----------------|-----------------|-----------------|-------------------|
 |-----------------|-----------------|-------4=--4-----|---------4---------|
 |-4-7-6-7=--6-7-6-|-4-7-6-------7-6-|-4-7-6-------7-6-|---7-6-----6h7p6-7-|
 |-----------------|-------7=--7-----|-----------------|-5-----5-----------|
 |-----------------|-----------------|-----------------|-------------------|

 


 | | | | |


 | | | | |


 

 
 |-----------------|-----------------|-----------------|-------------------|
 |-----------------|-----------------|-----------------|-------------------|
 |---6-4-6=--4-6-4-|---6-4-------6-4-|---6-4-7=--7-6-4-|---6-4---7-4h6p4---|
 |-7---------------|-7-----6=--6-----|-7---------------|-4-----4---------6-|
 |-----------------|-----------------|-----------------|-------------------|
 |-----------------|-----------------|-----------------|-------------------|

 


 


 


 Riff 4:


 


 

 
 |-----------------|-----------------|-----------------|---------------------|
 |-----------------|-----------------|-----------------|---------------------|
 |-----------------|-----------------|-----------------|-4==---3-7=--4--3----|
 |-4====-------4-6-|-7===------7-9-7-|-6======---------|-4==---3-7=--4--3--5-|
 |-4====-------4-6-|-7===------7-9-7-|-6======---------|-2==---1-5=--2--1--5-|
 |-2====-------2-4-|-5===------5-7-5-|-4======---------|-------------------3-|

 


 . .


 


 


 Ending:


 

 
 |---------------------|
 |-7===-----(7)===-----|
 |---------------------|
 |---------------------|
 |---------------------|
 |---------------------|

 


 | |


 | |


 

 
 |---------------------|
 |---------------------|
 |---------------------|
 |-4===------4===---//-|
 |-4===------4===---//-|
 |-2===------2===---//-|


Important: The song above is NOT stored on the Chordie server. The original song is hosted at www.guitaretab.com. Chordie works as a search engine and provides on-the-fly formatting. Chordie does not index songs against artists'/composers' will. To remove this song please click here.

This song is displayed as text-only. Transposing and tuning is only available for chordpro-songs.
Rate #1 of 1 versions

Login - add to songbook

SHARE PAGE  




You need to log in to post comments