Guitar Tabs, Chords and Lyrics
Server problems seems to be fixed. Chordie has been experiencing problems with songs disappearing. These issues now seems to be fixed, but still verifying the fix. If you find anything strange, please email admin@chordie.com.


The Nun With the Astral Habit   Cradle of Filth

 
 ------------------------------------------------------------------|
 ------------------------------------------------------------------|
 ------------------------------------------------------------------|
 -----------------------------8888---------------------------------|
 -6666666666666666666688889999----7777777777777777--------99889988-|
 -------------------------------------------------88888888---------|
 ----------------------------------------------------------------|
 ----------------------------------------------------------------|
 ----------------------------------------------------------------|
 -----------------------------8888-------------------------------|
 -6666666666666666666688889999----7777777777777777-5-4-3--5-4-3--|
 --------------------------------------------------3-2-1--3-2-1--|

 


 * * * * * *


 

 
 ------------------------------------------------------------------|
 ------------------------------------------------------------------|
 ------------------------------------------------------------------|
 ------------------------------------------------------------------|
 -66666666666666666666----5555-----------------------------8-7-6-4-|
 ---------------------6666----6666555555555555555511111111-6-5-4---|

 


 * * *


 

 
 -------------------------------------------------------------------------|
 -------------------------------------------------------------------------|
 -------------------------------------------------------------------------|
 ------------------------------------------------12111010---10------------|
 66666666666666666666----5555--------------------10-9-8-8----8-4-7------9-|
 --------------------6666----66665555555555555555--------7-8---2-5--5-8-7\|

 


 * * * *


 


 0:22


 

 
 ------------------------------------------------------------|
 ------------------------------------------------------------|
 ------------------------------------------------------------|
 ------------------------------------------------------------|
 -7--------------8---------------9--------------3--5--3-6-4--|
 -5-000000000000-6-00000000-5-8--7\000000000000-1--3--1-4-2--|

 


 ************ ******** * * ************ * *


 

 
 ------------------------------------------------------------|
 ------------------------------------------------------------|
 ------------------------------------------------------------|
 ------------------------------------------------------------|
 -7--------------8---------------9--------------3--5--3-6-4--|
 -5-000000000000-6-00000000-5-8--7\000000000000-1--3--1-4-2--|

 


 ************ ******** * * ************ * *


 

 
 ------------------------------------------------------------|
 ------------------------------------------------------------|
 ------------------------------------------------------------|
 ------------------------------------------------------------|
 -7--------------8---------------9--------------3--5--3-6-4--|
 -5-000000000000-6-00000000-5-8--7\000000000000-1--3--1-4-2--|

 


 ************ ******** * * ************ * *


 

 
 ------------------------------------------------------------|
 ------------------------------------------------------------|
 ------------------------------------------------------------|
 ---------------------------------------------------------2--|
 -7--------------8---------------9--------------3--5--3-6-4--|
 -5-000000000000-6-00000000-5-8--7\000000000000-1--3--1-4-2--|

 


 ************ ******** * * ************ * *


 


 


 0:44


 

 
 --------------------------------------------------|
 --------------------------------------------------|
 --------------------------------------------------|
 --------------------------------------------------|
 -2-2-2-2-2-2-4-4-4-2-2-2-5-5-5-5-5-5-4-4-4-5-5-5--|
 --------------------------------------------------|

 


 * * * * * * * * * * * * * * * * * * * * * * * *


 


 

 
 ----------------------------------------------------------|
 ----------------------------------------------------------|
 ----------------------------------------------------------|
 --------------------------------^-------------------------|
 -2-2-2-2-2-2-4-4-4-2-2-2-5--4--5-4---7-77-7-77-7-77-7-77--|
 -----------------------------------7-5-55-5-55-5-55-5-55--|

 


 * * * * * * * * * * * *


 

 
 -----------------------------------------------------------|
 -----------------------------------------------------------|
 -----------------------------------------------------------|
 -----------------------------------------------------------|
 ------6------6------3-3-4--2222222244442222555555554445555-|
 -5555-4-5555-4-2222-1-1-2----------------------------------|

 


 **** **** **** *******************************


 


 

 
 -----------------------------------------------------------------------|
 -----------------------------------------------------------------------|
 -----------------------------------------------------------------------|
 -----------------------^-----------------------------------------------|
 2222222244442222-5-4--5-4--7-77-7-77-7-77-7-77------6------6------3-3-4|
 -------------------------7-5-55-5-55-5-55-5-55-5555-4-5555-4-2222-1-1-2|

 


 **************** **** **** ****


 


 1:05


 

 
 -----------------------------------------------------------------|
 -----------------------------------------------------------------|
 -----------------------------------------------------------------|
 -----------------------------------------------------------------|
 ------5-------4-------8-------7-------5-------4-------8-------7--|
 -3333-3--3322-2--6666-6--6655-5--3333-3--3322-2--6666-6--6655-5--|

 


 **** **** **** **** **** **** **** ****


 

 
 -----------------------------------------------------------------|
 -----------------------------------------------------------------|
 -----------------------------------------------------------------|
 -----------------------------------------------------------------|
 ------5-------4-------8-------7-------5-------4-------8-------7--|
 -3333-3--3322-2--6666-6--6655-5--3333-3--3322-2--6666-6--6655-5--|

 


 **** **** **** **** **** **** **** ****


 


 


 1:15


 

 
 ------------------------------------------------------------------|
 ------------------------------------------------------------------|
 ------------------------------------------------------------------|
 -10101010101010101010101010101010-9-9-9-9-9-9-9-9-9-9-9-9-9-9-9-9-|
 --8-8-8-8-8-8-8-8-8-8-8-8-8-8-8-8-8-8-8-8-8-8-8-8-8-8-8-8-8-8-8-8-|
 ------------------------------------------------------------------|
 -----------------------------------------------------------------|
 -----------------------------------------------------------------|
 -----------------------------------------------------------------|
 -----------------------------------------8-8-8-8-7-7-5-5-7-7-7-7-|
 10101010101010101010101010101010-6-6-6-6-6-6-6-6-5-5-3-3-5-5-5-5-|
 -8-8-8-8-8-8-8-8-8-8-8-8-8-8-8-8-4-4-4-4-------------------------|
 ------------------------------------------------------------------|
 ------------------------------------------------------------------|
 ------------------------------------------------------------------|
 -10101010101010101010101010101010-9-9-9-9-9-9-9-9-9-9-9-9-9-9-9-9-|
 --8-8-8-8-8-8-8-8-8-8-8-8-8-8-8-8-8-8-8-8-8-8-8-8-8-8-8-8-8-8-8-8-|
 ------------------------------------------------------------------|
 -----------------------------------------------------------------|
 -----------------------------------------------------------------|
 -----------------------------------------------------------------|
 -----------------------------------------8-8-8-8-----------------|
 10101010101010101010101010101010-6-6-6-6-6-6-6-6-6-6-6-6-5-5-5-5-|
 -8-8-8-8-8-8-8-8-8-8-8-8-8-8-8-8-4-4-4-4---------4-4-4-4-3-3-3-3-|
 ------------------------------------------------------------------|
 ------------------------------------------------------------------|
 ------------------------------------------------------------------|
 -10101010101010101010101010101010-9-9-9-9-9-9-9-9-9-9-9-9-9-9-9-9-|
 --8-8-8-8-8-8-8-8-8-8-8-8-8-8-8-8-8-8-8-8-8-8-8-8-8-8-8-8-8-8-8-8-|
 ------------------------------------------------------------------|
 -----------------------------------------------------------------|
 -----------------------------------------------------------------|
 -----------------------------------------------------------------|
 -----------------------------------------8-8-8-8-7-7-5-5-7-7-7-7-|
 10101010101010101010101010101010-6-6-6-6-6-6-6-6-5-5-3-3-5-5-5-5-|
 -8-8-8-8-8-8-8-8-8-8-8-8-8-8-8-8-4-4-4-4-------------------------|
 ------------------------------------------------------------------|
 ------------------------------------------------------------------|
 ------------------------------------------------------------------|
 -10101010101010101010101010101010-9-9-9-9-9-9-9-9-9-9-9-9-9-9-9-9-|
 --8-8-8-8-8-8-8-8-8-8-8-8-8-8-8-8-8-8-8-8-8-8-8-8-8-8-8-8-8-8-8-8-|
 ------------------------------------------------------------------|
 -----------------------------------------------------------------|
 -----------------------------------------------------------------|
 -----------------------------------------------------------------|
 -----------------------------------------8-8-8-8-----------------|
 10101010101010101010101010101010-6-6-6-6-6-6-6-6-6-6-6-6-5-5-5-5-|
 -8-8-8-8-8-8-8-8-8-8-8-8-8-8-8-8-4-4-4-4---------4-4-4-4-3-3-3-3-|
 -----------------|
 -----------------|
 -----------------|
 -----------------|
 -4--7-------9----|
 -2--5--5-8--7----|

 


 * *


 


 


 1:38


 

 
 ------------------------------------------------------------|
 ------------------------------------------------------------|
 ------------------------------------------------------------|
 ------------------------------------------------------------|
 -7--------------8---------------9--------------3--5--3-6-4--|
 -5-000000000000-6-00000000-4-8--7\000000000000-1--3--1-4-2--|

 


 ************ ******** * * ************ * *


 

 
 ------------------------------------------------------------|
 ------------------------------------------------------------|
 ------------------------------------------------------------|
 ------------------------------------------------------------|
 -7--------------8---------------9--------------3--5--3-6-4--|
 -5-000000000000-6-00000000-5-8--7\000000000000-1--3--1-4-2--|

 


 ************ ******** * * ************ * *


 

 
 ------------------------------------------------------------|
 ------------------------------------------------------------|
 ------------------------------------------------------------|
 ------------------------------------------------------------|
 -7--------------8---------------9--------------3--5--3-6-4--|
 -5-000000000000-6-00000000-5-8--7\000000000000-1--3--1-4-2--|

 


 ************ ******** * * ************ * *


 

 
 ------------------------------------------------------------|
 ------------------------------------------------------------|
 ------------------------------------------------------------|
 ---------------------------------------------------------2--|
 -7--------------8---------------9--------------3--5--3-6-4--|
 -5-000000000000-6-00000000-5-8--7\000000000000-1--3--1-4-2--|

 


 ************ ******** * * ************ * *


 


 


 2:00


 

 
 --------------------------------------------------|
 --------------------------------------------------|
 --------------------------------------------------|
 --------------------------------------------------|
 -2-2-2-2-2-2-4-4-4-2-2-2-5-5-5-5-5-5-4-4-4-5-5-5--|
 --------------------------------------------------|

 


 * * * * * * * * * * * * * * * * * * * * * * * *


 


 

 
 ----------------------------------------------------------|
 ----------------------------------------------------------|
 ----------------------------------------------------------|
 --------------------------------^-------------------------|
 -2-2-2-2-2-2-4-4-4-2-2-2-5--4--5-4---7-77-7-77-7-77-7-77--|
 -----------------------------------7-5-55-5-55-5-55-5-55--|

 


 * * * * * * * * * * * *


 

 
 -----------------------------------------------------------|
 -----------------------------------------------------------|
 -----------------------------------------------------------|
 -----------------------------------------------------------|
 ------6------6------3-3-4--2222222244442222555555554445555-|
 -5555-4-5555-4-2222-1-1-2----------------------------------|

 


 **** **** **** *******************************


 


 

 
 -----------------------------------------------------------------------|
 -----------------------------------------------------------------------|
 -----------------------------------------------------------------------|
 -----------------------^-----------------------------------------------|
 2222222244442222-5-4--5-4--7-77-7-77-7-77-7-77------6------6------3-3-4|
 -------------------------7-5-55-5-55-5-55-5-55-5555-4-5555-4-2222-1-1-2|

 


 **************** **** **** ****


 


 


 2:21


 

 
 -----------------------------------------------------------------|
 -----------------------------------------------------------------|
 -----------------------------------------------------------------|
 -----------------------------------------------------------------|
 ------5-------4-------8-------7-------5-------4-------8-------7--|
 -3333-3--3322-2--6666-6--6655-5--3333-3--3322-2--6666-6--6655-5--|

 


 **** **** **** **** **** **** **** ****


 

 
 -----------------------------------------------------------------|
 -----------------------------------------------------------------|
 -----------------------------------------------------------------|
 -----------------------------------------------------------------|
 ------5-------4-------8-------7-------5-------4-------8-------7--|
 -3333-3--3322-2--6666-6--6655-5--3333-3--3322-2--6666-6--6655-5--|

 


 **** **** **** **** **** **** **** ****


 


 


 2:32


 

 
 ------------------------------------------------------------------|
 ------------------------------------------------------------------|
 ------------------------------------------------------------------|
 -10101010101010101010101010101010-9-9-9-9-9-9-9-9-9-9-9-9-9-9-9-9-|
 --8-8-8-8-8-8-8-8-8-8-8-8-8-8-8-8-8-8-8-8-8-8-8-8-8-8-8-8-8-8-8-8-|
 ------------------------------------------------------------------|
 -----------------------------------------------------------------|
 -----------------------------------------------------------------|
 -----------------------------------------------------------------|
 -----------------------------------------8-8-8-8-7-7-5-5-7-7-7-7-|
 10101010101010101010101010101010-6-6-6-6-6-6-6-6-5-5-3-3-5-5-5-5-|
 -8-8-8-8-8-8-8-8-8-8-8-8-8-8-8-8-4-4-4-4-------------------------|
 ------------------------------------------------------------------|
 ------------------------------------------------------------------|
 ------------------------------------------------------------------|
 -10101010101010101010101010101010-9-9-9-9-9-9-9-9-9-9-9-9-9-9-9-9-|
 --8-8-8-8-8-8-8-8-8-8-8-8-8-8-8-8-8-8-8-8-8-8-8-8-8-8-8-8-8-8-8-8-|
 ------------------------------------------------------------------|
 -----------------------------------------------------------------|
 -----------------------------------------------------------------|
 -----------------------------------------------------------------|
 -----------------------------------------8-8-8-8-----------------|
 10101010101010101010101010101010-6-6-6-6-6-6-6-6-6-6-6-6-5-5-5-5-|
 -8-8-8-8-8-8-8-8-8-8-8-8-8-8-8-8-4-4-4-4---------4-4-4-4-3-3-3-3-|
 ------------------------------------------------------------------|
 ------------------------------------------------------------------|
 ------------------------------------------------------------------|
 -10101010101010101010101010101010-9-9-9-9-9-9-9-9-9-9-9-9-9-9-9-9-|
 --8-8-8-8-8-8-8-8-8-8-8-8-8-8-8-8-8-8-8-8-8-8-8-8-8-8-8-8-8-8-8-8-|
 ------------------------------------------------------------------|
 -----------------------------------------------------------------|
 -----------------------------------------------------------------|
 -----------------------------------------------------------------|
 -----------------------------------------8-8-8-8-7-7-5-5-7-7-7-7-|
 10101010101010101010101010101010-6-6-6-6-6-6-6-6-5-5-3-3-5-5-5-5-|
 -8-8-8-8-8-8-8-8-8-8-8-8-8-8-8-8-4-4-4-4-------------------------|
 ------------------------------------------------------------------|
 ------------------------------------------------------------------|
 ------------------------------------------------------------------|
 -10101010101010101010101010101010-9-9-9-9-9-9-9-9-9-9-9-9-9-9-9-9-|
 --8-8-8-8-8-8-8-8-8-8-8-8-8-8-8-8-8-8-8-8-8-8-8-8-8-8-8-8-8-8-8-8-|
 ------------------------------------------------------------------|
 -----------------------------------------------------------------|
 -----------------------------------------------------------------|
 -----------------------------------------------------------------|
 -----------------------------------------8-8-8-8-----------------|
 10101010101010101010101010101010-6-6-6-6-6-6-6-6-6-6-6-6-5-5-5-5-|
 -8-8-8-8-8-8-8-8-8-8-8-8-8-8-8-8-4-4-4-4---------4-4-4-4-3-3-3-3-|

 


 


 


 2:53


 

 
 ---------------------------------------------------------------------|
 ---------------------------------------------------------------------|
 ---------------------------------------------------------------------|
 ---------------------------------------------------------------------|
 ---------------------------------------------------------------------|
 -0-0-0-0-0-0-0-0-0-0-0-0-0-0-0-000-0-0-0-0-0-0-0-0-0-0-0-0-0-0-0-000-|

 


 * * * * * * * * * * * * * * * *** * * * * * * * * * * * * * * * ***


 


 

 
 ---------------------------------------------------------------------|
 ---------------------------------------------------------------------|
 ---------------------------------------------------------------------|
 ---------------------------------------------------------------------|
 ---------------------------------------------------------------------|
 -0-0-0-0-0-0-0-0-0-0-0-0-0-0-0-000-0-0-0-0-0-0-0-0-0-0-0-0-0-0-0-000-|

 


 * * * * * * * * * * * * * * * *** * * * * * * * * * * * * * * * ***


 


 

 
 ---------------------------------------------------------------------|
 ---------------------------------------------------------------------|
 ---------------------------------------------------------------------|
 ---------------------------------------------------------------------|
 ---------------------------------------------------------------------|
 -0-0-0-0-0-0-0-0-0-0-0-0-0-0-0-000-0-0-0-0-0-0-0-0-0-0-0-0-0-0-0-000-|

 


 * * * * * * * * * * * * * * * *** * * * * * * * * * * * * * * * ***


 


 

 
 ---------------------------------------------------------------------|
 ---------------------------------------------------------------------|
 ---------------------------------------------------------------------|
 ---------------------------------------------------------------------|
 ---------------------------------------------------------------------|
 -0-0-0-0-0-0-0-0-0-0-0-0-0-0-0-000-0-0-0-0-0-0-0-0-0-0-0-0-0-0-0-000-|

 


 * * * * * * * * * * * * * * * *** * * * * * * * * * * * * * * * ***


 


 

 
 ---------------------------------------------------------------------|
 ---------------------------------------------------------------------|
 ---------------------------------------------------------------------|
 ---------------------------------------------------------------------|
 ---------------------------------------------------------------------|
 -0-0-0-0-0-0-0-0-0-0-0-0-0-0-0-000-0-0-0-0-0-0-0-0-0-0-0-0-0-0-0-000-|

 


 * * * * * * * * * * * * * * * *** * * * * * * * * * * * * * * * ***


 


 

 
 ----------------------------------|
 ----------------------------------|
 ----------------------------------|
 --12-11-1010----10----------------|
 --10-9--8-8------8--4--7-------9--|
 -------------7-8----2--5--5-8--7\-|

 


 * * * *


 


 


 3:43


 


 SOLO


 


 [1]  

 
 ------------------------------------------_____-------------|
 -----------------------------------------/ \-------13---|
 -/4~--4/5-5-4-4/5-8~-----/9~---\-/11---12\/-14\/16--16------|
 ------------------------------------------------------------|
 ------------------------------------------------------------|
 ------------------------------------------------------------|

 


 [2]  

 
 ------------------------------------------------------------|
 ------------------------------------------------------------|
 ------------------------------------------------------------|
 ------------------------------------------------------------|
 -7--------------8---------------9--------------3--5--3-6-4--|
 -5-000000000000-6-00000000-5-8--7\000000000000-1--3--1-4-2--|

 


 ************ ******** * * ************ * *


 


 1 _________________


 

 
 ----)-----------------(-----------------------------------------------|
 -16-----16-16-16---16---16~~~-------------------SPH_____--------------|
 --------------------------------------------------/ \-------------|
 ----------------------------------------13---13-14-16-14-13-14/17-16~-|
 -------------------------------12-14-15----15-------------------------|
 ----------------------------------------------------------------------|

 


 * * * * *


 [2]  

 
 ------------------------------------------------------------|
 ------------------------------------------------------------|
 ------------------------------------------------------------|
 ------------------------------------------------------------|
 -7--------------8---------------9--------------3--5--3-6-4--|
 -5-000000000000-6-00000000-5-8--7\000000000000-1--3--1-4-2--|

 


 ************ ******** * * ************ * *


 


 [1]  

 
 --TR~~--TR~~--TR~---TR~~--TR~~--TR~-1920--1920--1920--------20-19-17-|
 1213--1213--1213--1617--1617--1617----TR~~--TR~~--TR~-20-22----------|
 ---------------------------------------------------------------------|
 ---------------------------------------------------------------------|
 ---------------------------------------------------------------------|
 ---------------------------------------------------------------------|

 


 [2]  

 
 ------------------------------------------------------------|
 ------------------------------------------------------------|
 ------------------------------------------------------------|
 ------------------------------------------------------------|
 -7--------------8---------------9--------------3--5--3-6-4--|
 -5-000000000000-6-00000000-5-8--7\000000000000-1--3--1-4-2--|

 


 ************ ******** * * ************ * *


 


 [1] _____________ ____________ ________


 / \ / \ / \ )(


 

 
 /19-17\151715\141514\12-/15-14\121412\1112118-/12-10\8108\787\5-7---~8\|
 -----------------------------------------------------------------------|
 -----------------------------------------------------------------------|
 -----------------------------------------------------------------------|
 -----------------------------------------------------------------------|
 -----------------------------------------------------------------------|

 


 [2]  

 
 ------------------------------------------------------------|
 ------------------------------------------------------------|
 ------------------------------------------------------------|
 ---------------------------------------------------------2--|
 -7--------------8---------------9--------------3--5--3-6-4--|
 -5-000000000000-6-00000000-5-8--7\000000000000-1--3--1-4-2--|

 


 ************ ******** * * ************ * *


 


 


 4:05


 


 

 
 -----------------------------------------------------------------|
 -----------------------------------------------------------------|
 -----------------------------------------------------------------|
 -----------------------------------------------------------------|
 ------5-------4-------8-------7-------5-------4-------8-------7--|
 -3333-3--3322-2--6666-6--6655-5--3333-3--3322-2--6666-6--6655-5--|

 


 **** **** **** **** **** **** **** ****


 

 
 -----------------------------------------------------------------|
 -----------------------------------------------------------------|
 -----------------------------------------------------------------|
 -----------------------------------------------------------------|
 ------5-------4-------8-------7-------5-------4-------8-------7--|
 -3333-3--3322-2--6666-6--6655-5--3333-3--3322-2--6666-6--6655-5--|

 


 **** **** **** **** **** **** **** ****


 


 

 
 -----------------------------------------------------------------|
 -----------------------------------------------------------------|
 -----------------------------------------------------------------|
 -----------------------------------------------------------------|
 ------5-------4-------8-------7-------5-------4-------8-------7--|
 -3333-3--3322-2--6666-6--6655-5--3333-3--3322-2--6666-6--6655-5--|

 


 **** **** **** **** **** **** **** ****


 

 
 -----------------------------------------------------------------|
 -----------------------------------------------------------------|
 -----------------------------------------------------------------|
 -----------------------------------------------------------------|
 ------5-------4-------8-------7-------5-------4-------8-------7--|
 -3333-3--3322-2--6666-6--6655-5--3333-3--3322-2--6666-6--6655-5--|

 


 **** **** **** **** **** **** **** ****


 


 


 4:26


 

 
 ------------------------------------------------------------------|
 ------------------------------------------------------------------|
 ------------------------------------------------------------------|
 -----------------------------8888---------------------------------|
 -6666666666666666666688889999----7777777777777777--------99889988-|
 -------------------------------------------------88888888---------|
 ----------------------------------------------------------------|
 ----------------------------------------------------------------|
 ----------------------------------------------------------------|
 -----------------------------8888-------------------------------|
 -6666666666666666666688889999----7777777777777777-5-4-3--5-4-3--|
 --------------------------------------------------3-2-1--3-2-1--|

 


 * * * * * *


 


 

 
 ------------------------------------------------------------------|
 ------------------------------------------------------------------|
 ------------------------------------------------------------------|
 ------------------------------------------------------------------|
 -66666666666666666666----5555-----------------------------8-7-6-4-|
 ---------------------6666----6666555555555555555511111111-6-5-4---|

 


 * * *


 


 

 
 -------------------------------------------------------------------------|
 -------------------------------------------------------------------------|
 -------------------------------------------------------------------------|
 ------------------------------------------------12111010---10------------|
 66666666666666666666----5555--------------------10-9-8-8----8-4-7------9-|
 --------------------6666----66665555555555555555--------7-8---2-5--5-8-7\|


Important: The song above is NOT stored on the Chordie server. The original song is hosted at www.guitaretab.com. Chordie works as a search engine and provides on-the-fly formatting. Chordie does not index songs against artists'/composers' will. To remove this song please click here.

This song is displayed as text-only. Transposing and tuning is only available for chordpro-songs.
Rate #1 of 2 versions

Login - add to songbook

SHARE PAGE  



You need to log in to post comments