Guitar Tabs, Chords and Lyrics
Server problems seems to be fixed. Chordie has been experiencing problems with songs disappearing. These issues now seems to be fixed, but still verifying the fix. If you find anything strange, please email admin@chordie.com.


The Abhorrent   Cradle of Filth

 
 -------------------------------------------------------------------|
 -------------------------------------------------------------------|
 -----------------------------------------------------slight bend---|
 -------------------------10-9-10-----------------8888888888888888--|
 -2-2-2-2-2-2-2-2-2-2-2-2--8-7/8--2-2-2-2-2-2-2-2-6666666666666666--|
 -0-0-0-0-0-0-0-0-0-0-0-0---------0-0-0-0-0-0-0-0-------------------|
 ----------------------------------------------------------------------|
 ----------------------------------------------------------------------|
 ----------------------------------------------------------------------|
 -9-------------------------10-9-10--9------9------9-------------------|
 -7-2-2-2-2-2-2-2-2-2-2-2-2--8-7/8---7-7777-7-7777-7-77-5---5---5-4-3-3|
 ---0-0-0-0-0-0-0-0-0-0-0-0-----------------------------3---3---3-2-1-1|

 


 **** **** **


 


 0:09


 


 

 
 -------------------------------------------------------------------|
 -------------------------------------------------------------------|
 ----------------------------------------------------slight bend----|
 -9-----------------------10-9-10------------------8888888888888888-|
 -7\-----------------------8-7/8-------------------6666666666666666-|
 ----00000000000000000000---------0000000000000000------------------|
 ------------------------------------------------------------------|
 ------------------------------------------------------------------|
 ------------------------------------------------------------------|
 -9----------------------10-9-10-----------------------------------|
 -7\----------------------8-7-8--------------------5---5---5-4-3-3-|
 ----00000000000000000000---------0000000000000000-3---3---3-2-1-1-|

 


 


 0:17


 

 
 -------------------------------------------------------------------|
 -------------------------------------------------------------------|
 -------------------------------------------------------------------|
 -9-----------------------10-9-10----------------------8888---------|
 -7\-----------------------8-7/8-------------------6666----6666-----|
 ----00000000000000000000---------0000000000000000-------------6666-|

 


 ****************


 


 

 
 -------------------------------------------------------------------|
 -------------------------------------------------------------------|
 -------------------------------------------------------------------|
 -9-----------------------10-9-10-----------------------------------|
 -7\-----------------------8-7/8--7777777777777777--5---5---5-4-3-3-|
 ----00000000000000000000---------------------------3---3---3-2-1-1-|

 


 ****************


 


 


 0:26


 


 

 
 -----------------------------------------------------|
 -----------------------------------------------------|
 -----------------------------------------------------|
 999999999999-777777-555555-444444444445--------------|
 ---------------------------------------777777777777--|
 -----------------------------------------------------|
 -----------------------------------------------------------------|
 -----------------------------------------------------------------|
 -----------------------------------------------------------------|
 101010101010101010101010-999999-777777-85-555555-75-777777777777-|
 -----------------------------------------------------------------|
 -----------------------------------------------------------------|
 -----------------------------------------------------|
 -----------------------------------------------------|
 -----------------------------------------------------|
 999999999999-777777-555555-444444444445--------------|
 ---------------------------------------777777777777--|
 -----------------------------------------------------|
 -----------------------------------------------------------------|
 -----------------------------------------------------------------|
 -----------------------------------------------------------------|
 101010101010101010101010-999999-777777-85-555555-75-777777777777-|
 -----------------------------------------------------------------|
 -----------------------------------------------------------------|

 


 


 0:43


 


 

 
 -----------------------------------------------------------|

 


 121212121212121212121212-101010101010-888888-77777777777-8-|


 

 
 -----------------------------------------------------------|
 -----------------------------------------------------------|
 -----------------------------------------------------------|
 -----------------------------------------------------------|
 -----------------------------------------------------------------|
 --------------131313131313131313131313-121212121212-101010101010-|
 -999999999999----------------------------------------------------|
 -----------------------------------------------------------------|
 -----------------------------------------------------------------|
 -----------------------------------------------------------------|
 -------------------------------------------|
 -8888888888-108-101010101010101010101010---|
 -------------------------------------------|
 -------------------------------------------|
 -------------------------------------------|
 -------------------------------------------|
 -----------------------------------------------------------|

 


 121212121212121212121212-101010101010-888888-77777777777-8-|


 

 
 -----------------------------------------------------------|
 -----------------------------------------------------------|
 -----------------------------------------------------------|
 -----------------------------------------------------------|
 -----------------------------------------------------------------|
 --------------131313131313131313131313-121212121212-101010101010-|
 -999999999999----------------------------------------------------|
 -----------------------------------------------------------------|
 -----------------------------------------------------------------|
 -----------------------------------------------------------------|
 -------------------------------------------|
 -8888888888-108-101010101010101010101010---|
 -------------------------------------------|
 -------------------------------------------|
 -------------------------------------------|
 -------------------------------------------|

 


 


 


 1:01


 


 

 
 -------------------------------------------------|
 -------------------------------------------------|
 -------------------------------------------------|
 -7-----8-----5-7----10---------7-----8-----5-10--|
 -5-----6-----3-5-----8---------5-----6-----3--8--|
 -5-----6-----3-5-----8---------5-----6-----3--8--|

 


 


 1:10


 

 
 ------------------------------------------------|
 ------------------------------------------------|
 ------------------------------------------------|
 -7777-6666-77-66-77-99-7777-6666-77-66-77-10-10-|
 -5555-4444-55-44-55-77-5555-4444-55-44-55--8--8-|
 -5555-4444-55-44-55-77-5555-4444-55-44-55--8--8-|
 --------------------------------------------|
 --------------------------------------------|
 --------------------------------------------|
 -7777-6666-77-66-77-99----------------------|
 -5555-4444-55-44-55-77-2222-3-3-2222-6-6----|
 -5555-4444-55-44-55-77-0000-1-1-0000-4-4----|

 


 **** ****


 


 

 
 ------------------------------------------------|
 ------------------------------------------------|
 ------------------------------------------------|
 -7777-6666-77-66-77-99-7777-6666-77-66-77-10-10-|
 -5555-4444-55-44-55-77-5555-4444-55-44-55--8--8-|
 -5555-4444-55-44-55-77-5555-4444-55-44-55--8--8-|
 --------------------------------------------|
 --------------------------------------------|
 --------------------------------------------|
 -7777-6666-77-66-77-99----------------------|
 -5555-4444-55-44-55-77-2222-3-3-2222-6-6----|
 -5555-4444-55-44-55-77-0000-1-1-0000-4-4----|

 


 **** ****


 


 

 
 ------------------------------------------------|
 ------------------------------------------------|
 ------------------------------------------------|
 -7777-6666-77-66-77-99-7777-6666-77-66-77-10-10-|
 -5555-4444-55-44-55-77-5555-4444-55-44-55--8--8-|
 -5555-4444-55-44-55-77-5555-4444-55-44-55--8--8-|
 --------------------------------------------|
 --------------------------------------------|
 --------------------------------------------|
 -7777-6666-77-66-77-99----------------------|
 -5555-4444-55-44-55-77-2222-3-3-2222-6-6----|
 -5555-4444-55-44-55-77-0000-1-1-0000-4-4----|

 


 **** ****


 


 

 
 ------------------------------------------------|
 ------------------------------------------------|
 ------------------------------------------------|
 -7777-6666-77-66-77-99-7777-6666-77-66-77-10-10-|
 -5555-4444-55-44-55-77-5555-4444-55-44-55--8--8-|
 -5555-4444-55-44-55-77-5555-4444-55-44-55--8--8-|
 ---------------------------------------------|
 ---------------------------------------------|
 ---------------------------------------------|
 -7777-6666-77-66-77-99-----------------------|
 -5555-4444-55-44-55-77-2222-3-3--5-5--5-4-3-3|
 -5555-4444-55-44-55-77-0000-1-1--3-3--3-2-1-1|

 


 ****


 


 1:45


 


 

 
 -------------------------------------------------------------------|
 -------------------------------------------------------------------|
 -----------------------------------------------------slight bend---|
 -9-----------------------10-9-10------------------8888888888888888-|
 -7\-----------------------8-7/8-------------------6666666666666666-|
 ----00000000000000000000---------0000000000000000------------------|
 ------------------------------------------------------------------|
 ------------------------------------------------------------------|
 ------------------------------------------------------------------|
 -9----------------------10-9-10-----------------------------------|
 -7\----------------------8-7-8--------------------5---5---5-4-3-3-|
 ----00000000000000000000---------0000000000000000-3---3---3-2-1-1-|

 


 


 1:53


 


 

 
 -------------------------------------------------------------------|
 -------------------------------------------------------------------|
 -------------------------------------------------------------------|
 -9-----------------------10-9-10----------------------8888---------|
 -7\-----------------------8-7/8-------------------6666----6666-----|
 ----00000000000000000000---------0000000000000000-------------6666-|

 


 ****************


 


 

 
 -------------------------------------------------------------------|
 -------------------------------------------------------------------|
 -------------------------------------------------------------------|
 -9-----------------------10-9-10-----------------------------------|
 -7\-----------------------8-7/8--7777777777777777--5---5---5-4-3-3-|
 ----00000000000000000000---------------------------3---3---3-2-1-1-|

 


 ****************


 


 


 2:20


 


 

 
 -----------------------------------------------------|
 -----------------------------------------------------|
 -----------------------------------------------------|
 999999999999-777777-555555-444444444445--------------|
 ---------------------------------------777777777777--|
 -----------------------------------------------------|
 -----------------------------------------------------------------|
 -----------------------------------------------------------------|
 -----------------------------------------------------------------|
 101010101010101010101010-999999-777777-85-555555-75-777777777777-|
 -----------------------------------------------------------------|
 -----------------------------------------------------------------|
 -----------------------------------------------------|
 -----------------------------------------------------|
 -----------------------------------------------------|
 999999999999-777777-555555-444444444445--------------|
 ---------------------------------------777777777777--|
 -----------------------------------------------------|
 -----------------------------------------------------------------|
 -----------------------------------------------------------------|
 -----------------------------------------------------------------|
 101010101010101010101010-999999-777777-85-555555-75-777777777777-|
 -----------------------------------------------------------------|
 -----------------------------------------------------------------|

 


 


 2:37


 


 

 
 -----------------------------------------------------------|

 


 121212121212121212121212-101010101010-888888-77777777777-8-|


 

 
 -----------------------------------------------------------|
 -----------------------------------------------------------|
 -----------------------------------------------------------|
 -----------------------------------------------------------|
 -----------------------------------------------------------------|
 --------------131313131313131313131313-121212121212-101010101010-|
 -999999999999----------------------------------------------------|
 -----------------------------------------------------------------|
 -----------------------------------------------------------------|
 -----------------------------------------------------------------|
 -------------------------------------------|
 -8888888888-108-101010101010101010101010---|
 -------------------------------------------|
 -------------------------------------------|
 -------------------------------------------|
 -------------------------------------------|
 -----------------------------------------------------------|

 


 121212121212121212121212-101010101010-888888-77777777777-8-|


 

 
 -----------------------------------------------------------|
 -----------------------------------------------------------|
 -----------------------------------------------------------|
 -----------------------------------------------------------|
 -----------------------------------------------------------------|
 --------------131313131313131313131313-121212121212-101010101010-|
 -999999999999----------------------------------------------------|
 -----------------------------------------------------------------|
 -----------------------------------------------------------------|
 -----------------------------------------------------------------|
 -------------------------------------------|
 -8888888888-108-101010101010101010101010---|
 -------------------------------------------|
 -------------------------------------------|
 -------------------------------------------|
 -------------------------------------------|

 


 


 


 2:54


 


 

 
 ------------------------------------------------------|
 ------------------------------------------------------|
 ------------------------------------------------------|
 -7------7-7-5--7------7-7-9--7------7-7-5-8--8-8-8-8--|
 -5-5555-5-5-3--5-5555-5-5-7--5-5555-5-5-3-6--6-6-6-6--|
 ------------------------------------------------------|

 


 **** **** ****


 

 
 ------------------------------------------------------|
 ------------------------------------------------------|
 ------------------------------------------------------|
 -7------7-7-5--7------7-7-9--7------7-7-5-8--8-8-8-8--|
 -5-5555-5-5-3--5-5555-5-5-7--5-5555-5-5-3-6--6-6-6-6--|
 ------------------------------------------------------|

 


 **** **** ****


 


 

 
 ------------------------------------------------------|
 ------------------------------------------------------|
 ------------------------------------------------------|
 -7------7-7-5--7------7-7-9--7------7-7-5-8--8-8-8-8--|
 -5-5555-5-5-3--5-5555-5-5-7--5-5555-5-5-3-6--6-6-6-6--|
 ------------------------------------------------------|

 


 **** **** ****


 

 
 ------------------------------------------------------|
 ------------------------------------------------------|
 ------------------------------------------------------|
 -7------7-7-5--7------7-7-9--7------7-7-5-8--8-8-8-8--|
 -5-5555-5-5-3--5-5555-5-5-7--5-5555-5-5-3-6--6-6-6-6--|
 ------------------------------------------------------|

 


 **** **** ****


 


 

 
 ------------------------------------------------------|
 ------------------------------------------------------|
 ------------------------------------------------------|
 -7------7-7-5--7------7-7-9--7------7-7-5-8--8-8-8-8--|
 -5-5555-5-5-3--5-5555-5-5-7--5-5555-5-5-3-6--6-6-6-6--|
 ------------------------------------------------------|

 


 **** **** ****


 

 
 ------------------------------------------------------|
 ------------------------------------------------------|
 ------------------------------------------------------|
 -7------7-7-5--7------7-7-9--7------7-7-5-8--8-8-8-8--|
 -5-5555-5-5-3--5-5555-5-5-7--5-5555-5-5-3-6--6-6-6-6--|
 ------------------------------------------------------|

 


 **** **** ****


 


 

 
 ------------------------------------------------------|
 ------------------------------------------------------|
 ------------------------------------------------------|
 -7------7-7-5--7------7-7-9--7------7-7-5-8--8-8-8-8--|
 -5-5555-5-5-3--5-5555-5-5-7--5-5555-5-5-3-6--6-6-6-6--|
 ------------------------------------------------------|

 


 **** **** ****


 

 
 ------------------------------------------------------|
 ------------------------------------------------------|
 ------------------------------------------------------|
 -7-----7-7-7-5--7----7-7-7-9--7----7-7-7-5-8--8-8-8-8-|
 -5-----5-5-5-3--5----5-5-5-7--5----5-5-5-3-6--6-6-6-6-|
 ------------------------------------------------------|
 ------------------------------------------------------|
 ------------------------------------------------------|
 ------------------------------------------------------|
 -7-----7-7-7-5--7----7-7-7-9--7----7-7-7-5-8--8-8-8-8-|
 -5-----5-5-5-3--5----5-5-5-7--5----5-5-5-3-6--6-6-6-6-|
 ------------------------------------------------------|
 -------------------------------------------------------|
 -------------------------------------------------------|
 -------------------------------------------------------|
 -7------7-7-5--7------7-7-9--7------7-7-5-8--8-8-8-8-8-|
 -5-5555-5-5-3--5-5555-5-5-7--5-5555-5-5-3-6--6-6-6-6-6-|
 -------------------------------------------------------|

 


 **** **** ****


 


 


 3:29


 


 

 
 -----------------------------------------------------------------|
 -----------------------------------------------------------------|
 ---------------------------------4-4-4-4-4-4-2-4-2-2-2-2-2-2-2-2-|
 -2-2-2-2-2-2-2-2-5-5-5-5-2-2-5-5---------------------------------|
 -----------------------------------------------------------------|
 -----------------------------------------------------------------|
 -----------------------------------------------------------------|
 -----------------------------------------------------------------|
 -----------------------------------------------------------------|
 -5-5-5-5-5-5-5-5-7-7-7-7-5-5-7-7-4-4-4-4-4-4-4-4-5-5-5-5-4-4-7-7-|
 -----------------------------------------------------------------|
 -----------------------------------------------------------------|
 -----------------------------------------------------------------|
 -----------------------------------------------------------------|
 ---------------------------------4-4-4-4-4-4-2-4-2-2-2-2-2-2-2-2-|
 -2-2-2-2-2-2-2-2-5-5-5-5-2-2-5-5---------------------------------|
 -----------------------------------------------------------------|
 -----------------------------------------------------------------|
 -----------------------------------------------------------------|
 -----------------------------------------------------------------|
 -----------------------------------------------------------------|
 -5-5-5-5-5-5-5-5-7-7-7-7-5-5-7-7-4-4-4-4-4-4-4-4-5-5-5-5-4-4-7-7-|
 -----------------------------------------------------------------|
 -----------------------------------------------------------------|

 


 


 


 3:45


 


 [1]  

 
 -----------------------------------------------------------------------|
 -------14--15--17---15-17-15-----171514---151415---151412--14-14-14-14-|
 --16-------------------------------------------------------------------|
 -----------------------------------------------------------------------|
 -----------------------------------------------------------------------|
 -----------------------------------------------------------------------|

 


 [2]  

 
 -------------------------------------------------------------------|
 -------------------------------------------------------------------|
 -------------------------------------------------------------------|
 ----------------9-----7-9-7------9-7-5----7-5-5----7-5-4----4-5-4--|
 -/7---\/10-9-10----------------------------------------------------|
 -------------------------------------------------------------------|

 


 


 [1]  

 
 -----------------------------------------------------------------------|
 -------14--15--17---15-17-15-----171514---151415---151412--14-14-14-14-|
 --16-------------------------------------------------------------------|
 -----------------------------------------------------------------------|
 -----------------------------------------------------------------------|
 -----------------------------------------------------------------------|

 


 [2]  

 
 -------------------------------------------------------------------|
 -------------------------------------------------------------------|
 -------------------------------------------------------------------|
 ----------------9-----7-9-7------9-7-5----7-5-5----7-5-4----4-5-4--|
 -/7---\/10-9-10----------------------------------------------------|
 -------------------------------------------------------------------|

 


 


 


 4:37


 


 

 
 -------------------------------------------------------------------|
 -------------------------------------------------------------------|
 -------------------------------------------------------------------|
 -9-----------------------10-9-10----------------------8888---------|
 -7\-----------------------8-7/8-------------------6666----6666-----|
 ----00000000000000000000---------0000000000000000-------------6666-|

 


 ****************


 

 
 ------------------------------------------------------------------|
 ------------------------------------------------------------------|
 ------------------------------------------------------------------|
 -9---------------------10-9-10-9------9------9--------------------|
 -7\---------------------8-7/8--7-7777-7-7777-7-77-5---5---5-4-3-3-|
 ---00000000000000000000---------------------------3---3---3-2-1-1-|

 


 **** **** **


 


 

 
 -------------------------------------------------------------------|
 -------------------------------------------------------------------|
 ----------------------------------------------------slight bend----|
 -9-----------------------10-9-10------------------8888888888888888-|
 -7\-----------------------8-7/8-------------------6666666666666666-|
 ----00000000000000000000---------0000000000000000------------------|
 ------------------------------------------------------------------|
 ------------------------------------------------------------------|
 ------------------------------------------------------------------|
 -9---------------------10-9-10-9------9------9--------------------|
 -7\---------------------8-7/8--7-7777-7-7777-7-77-5---5---5-4-3-3-|
 ---00000000000000000000---------------------------3---3---3-2-1-1-|

 


 **** **** **


 


 4:54


 


 

 
 ------------------------------------------------|
 ------------------------------------------------|
 ------------------------------------------------|
 -7777-6666-77-66-77-99-7777-6666-77-66-77-10-10-|
 -5555-4444-55-44-55-77-5555-4444-55-44-55--8--8-|
 -5555-4444-55-44-55-77-5555-4444-55-44-55--8--8-|
 --------------------------------------------|
 --------------------------------------------|
 --------------------------------------------|
 -7777-6666-77-66-77-99----------------------|
 -5555-4444-55-44-55-77-2222-3-3-2222-6-6----|
 -5555-4444-55-44-55-77-0000-1-1-0000-4-4----|

 


 **** ****


 


 

 
 ------------------------------------------------|
 ------------------------------------------------|
 ------------------------------------------------|
 -7777-6666-77-66-77-99-7777-6666-77-66-77-10-10-|
 -5555-4444-55-44-55-77-5555-4444-55-44-55--8--8-|
 -5555-4444-55-44-55-77-5555-4444-55-44-55--8--8-|
 --------------------------------------------|
 --------------------------------------------|
 --------------------------------------------|
 -7777-6666-77-66-77-99----------------------|
 -5555-4444-55-44-55-77-2222-3-3-2222-6-6----|
 -5555-4444-55-44-55-77-0000-1-1-0000-4-4----|

 


 **** ****


 


 

 
 ------------------------------------------------|
 ------------------------------------------------|
 ------------------------------------------------|
 -7777-6666-77-66-77-99-7777-6666-77-66-77-10-10-|
 -5555-4444-55-44-55-77-5555-4444-55-44-55--8--8-|
 -5555-4444-55-44-55-77-5555-4444-55-44-55--8--8-|
 --------------------------------------------|
 --------------------------------------------|
 --------------------------------------------|
 -7777-6666-77-66-77-99----------------------|
 -5555-4444-55-44-55-77-2222-3-3-2222-6-6----|
 -5555-4444-55-44-55-77-0000-1-1-0000-4-4----|

 


 **** ****


 


 

 
 ------------------------------------------------|
 ------------------------------------------------|
 ------------------------------------------------|
 -7777-6666-77-66-77-99-7777-6666-77-66-77-10-10-|
 -5555-4444-55-44-55-77-5555-4444-55-44-55--8--8-|
 -5555-4444-55-44-55-77-5555-4444-55-44-55--8--8-|
 ---------------------------------------------|
 ---------------------------------------------|
 ---------------------------------------------|
 -7777-6666-77-66-77-99-----------------------|
 -5555-4444-55-44-55-77-2222-3-3--5-5--5-4-3-3|
 -5555-4444-55-44-55-77-0000-1-1--3-3--3-2-1-1|

 


 ****


 


 5:29


 


 

 
 -------------------------------------------------------------------|
 -------------------------------------------------------------------|
 -----------------------------------------------------slight bend---|
 -9-----------------------10-9-10------------------8888888888888888-|
 -7\-----------------------8-7/8-------------------6666666666666666-|
 ----00000000000000000000---------0000000000000000------------------|
 ------------------------------------------------------------------|
 ------------------------------------------------------------------|
 ------------------------------------------------------------------|
 -9----------------------10-9-10-----------------------------------|
 -7\----------------------8-7-8--------------------5---5---5-4-3-3-|
 ----00000000000000000000---------0000000000000000-3---3---3-2-1-1-|
 -------------------------------------------------------------------|
 -------------------------------------------------------------------|
 -------------------------------------------------------------------|
 -9-----------------------10-9-10----------------------8888---------|
 -7\-----------------------8-7/8-------------------6666----6666-----|
 ----00000000000000000000---------0000000000000000-------------6666-|

 


 ****************


 


 

 
 -------------------------------------------------------------------|
 -------------------------------------------------------------------|
 -------------------------------------------------------------------|
 -9-----------------------10-9-10-----------------------------------|
 -7\-----------------------8-7/8--7777777777777777--5---5---5-4-3-3-|
 ----00000000000000000000---------------------------3---3---3-2-1-1-|


Important: The song above is NOT stored on the Chordie server. The original song is hosted at www.guitaretab.com. Chordie works as a search engine and provides on-the-fly formatting. Chordie does not index songs against artists'/composers' will. To remove this song please click here.

This song is displayed as text-only. Transposing and tuning is only available for chordpro-songs.
Rate #2 of 2 versions

Jango Player

Login - add to songbook

SHARE PAGE  




You need to log in to post comments