Guitar Tabs, Chords and Lyrics
Major upgrade!! After one year development the new version of Chordie is now online! Please give feedback.


Death Magick for Adepts   Cradle of Filth

 
 D|-0----0---3----3---4----4-------------------------------------------------|
 A|-0----0---3----3---4----4-------------------------------------------------|
 F|--------------------------------------------------------------------------|
 C|--------------------------5-6-5-------x4-9-8-9-10-9-8-9----------9-8-9-10-|
 G|2--22---5---55---6---66---------7-6-7----7-6-7-8--7-6-7-7-10-5-9-7-6-7-8--|
 D|0--00---3---33---4---44---------------------------------5-8--3-7----------|

 


 


 [2] [3]x2(2nd time no picksled)-[4]


 

 
 |----------------------------------------------------------------------------|
 |----------------------------------------------------------------------------|
 |-----------------------------------------10-9-7-9-------9-------------------|
 |9-8-9---------x2---------8~x///pickslide----------7-9-10--10-9-10-9-7-9-7-9-|
 |7-6-7-7-10-9~----5-----4-6~x////--------------------------------------------|
 |------5-8--7~----3--33-2----------------------------------------------------|

 


 [5]x2


 

 
 |----------------------------------------------------|----------------------|
 |-----------------------------------------8----------|----------------------|
 |--9---------------------10-7---------9-10--10-9-7-9-|----------------------|
 |10--10-9-10-9-7-9-7-9-10-----10-9-10----------------|--5t----------5t--5t--|
 |----------------------------------------------------|3t--6t5t3t5t6t--3t----|
 |----------------------------------------------------|----------------------|

 


 [6]x2


 

 
 |----------------------------------------------|----------------------------|
 |----------------------------------------------|----------------------------|
 |-------------------------------3t-------------|----------------------------|
 |----------5t6t3t-------3t6t5t6t---6t5t3t------|2---5---6-5-6-5-------------|
 |6t5t3t5t6t-------6t5t6t------------------6t5t-|----------------7-6-7-------|
 |----------------------------------------------|--0t--0t--------------------|

 


 [7]x2 outrox2


 

 
 |-----------------------------------------|---------|-----------------------|
 |-----------------------------------------|---------|-----------------------|
 |-----------------------------------------|---------|-----------------------|
 |-----------------------------------------|---------|----7--7--7-9-7-9-9-10-|
 |8/7-ect.-11t8t-7-7-7-8/7-ect.-3t11t-7-7-7|7~~~~~~~~|-000-00----------------|
 |6/5------9-t6t--5-5-5-6/5------1t9-t-5-5-5|5~~~~~~~|-----------------------|

 


 pm . . . . . .


 

 
 |-----------------------|
 |-----------------------|
 |-----9-10-9-9-7-9------|
 |9t7t--------------10-9-|
 |7t5t-------------------|
 |-----------------------|


Important: The song above is NOT stored on the Chordie server. The original song is hosted at www.guitaretab.com. Chordie works as a search engine and provides on-the-fly formatting. Chordie does not index songs against artists'/composers' will. To remove this song please click here.

This song is displayed as text-only. Transposing and tuning is only available for chordpro-songs.
Rate #1 of 2 versions

Login - add to songbook

SHARE PAGE  



You need to log in to post comments