Guitar Tabs, Chords and Lyrics
Server problems seems to be fixed. Chordie has been experiencing problems with songs disappearing. These issues now seems to be fixed, but still verifying the fix. If you find anything strange, please email admin@chordie.com.


Libertina Grimm  Cradle of Filth

 
 ||-------------------------|-------------------------|------------------------|
 A||-------------------------|-------------------------|------------------------|
 F||-------------------------|-------------------------|------------------------|
 C||-------------------------|-------------------------|------------------------|
 G||--4----4--2--4--4--4--6--|--5----5--4--5--5--5--6--|--4----4--2--4--4--4----|
 D||--2----2--0--2--2--2--4--|--3----3--2--3--3--3--4--|--2----2--0--2--2--2----|

Q Q Q Q Q E E E E E E Q E E E E E E
 
 ----------------------|-------------------------|-------------------------|
 ----------------------|-------------------------|-------------------------|
 ----------------------|-------------------------|-------------------------|
 ----------------------|-------------------------|-------------------------|
 --8----8----7----7----|--4----4--2--4--4--4--6--|--5----5--4--5--5--5--6--|
 --6----6----5----5----|--2----2--0--2--2--2--4--|--3----3--2--3--3--3--4--|

Q E E E E Q Q Q Q Q Q E E E E E E
 
 ------------------------|----------------------|-------------------------|
 ------------------------|----------------------|-------------------------|
 ------------------------|----------------------|-------------------------|
 ------------------------|----------------------|-------------------------|
 --4----4--2--4--4--4----|--8----8----7----7----|--4----4--2--4--4--4--6--|
 --2----2--0--2--2--2----|--6----6----5----5----|--2----2--0--2--2--2--4--|

Q E E E E E E Q E E E E Q Q Q Q Q
 
 -------------------------|------------------------|----------------------|
 -------------------------|------------------------|----------------------|
 -------------------------|------------------------|----------------------|
 -------------------------|------------------------|----------------------|
 --5----5--4--5--5--5--6--|--4----4--2--4--4--4----|--8----8----7----7----|
 --3----3--2--3--3--3--4--|--2----2--0--2--2--2----|--6----6----5----5----|

Q E E E E E E Q E E E E E E Q E E E E Q
 
 -------------------------|-------------------------|------------------------|
 -------------------------|-------------------------|------------------------|
 -------------------------|-------------------------|------------------------|
 -------------------------|-------------------------|------------------------|
 --4----4--2--4--4--4--6--|--5----5--4--5--5--5--6--|--4----4--2--4--4--4----|
 --2----2--0--2--2--2--4--|--3----3--2--3--3--3--4--|--2----2--0--2--2--2----|

Q Q Q Q S S S S S S S S S S S S S S E
 
 ----------------------|---------------------------------|
 ----------------------|---------------------------------|
 ----------------------|---------------------------------|
 ----------------------|--------------------------5-4-5--|
 --8----8----7----7----|--7-7-7-7-7-7-7-7-7-7-7-7--------|
 --6----6----5----5----|---------------------------------|

S S S S S S E S S S S S S S S S S S S S S S S S S S S S S E
 
 ---------------------------------|---------------------------------|
 ---------------------------------|---------------------------------|
 ---------------------------------|---------------------------------|
 --7-7-7-7-5-7-5--4-4-4-4---------|---------------------------------|
 -------------------------7-7-7-7-|--6-6-6-6-6-6-6-6-6-6-6-6-7-6-7--|
 ---------------------------------|---------------------------------|

S S S S S S S S S S S S S S S S S S S S S S S S S S S S S S E
 
 ----------------------------------|---------------------------------|
 ----------------------------------|---------------------------------|
 ----------------------------------|---------------------------------|
 ----------7-7-7-7---------5-5-5-5-|--------------------------5-4-5--|
 --9-9-9-9---------6-6-6-6---------|--7-7-7-7-7-7-7-7-7-7-7-7--------|
 ----------------------------------|---------------------------------|

S S S S S S E S S S S S S S S S S S S S S S S S S S S S S S S
 
 ---------------------------------|----------------------------------|
 ---------------------------------|----------------------------------|
 ---------------------------------|----------------------------------|
 --7-7-7-7-5-7-5--4-4-4-4---------|----------------------------------|
 -------------------------7-7-7-7-|--6-6-6-6-6-6-6-6-6-6-7-7-6-6-7-7-|
 ---------------------------------|----------------------------------|

PM PM
S S S S S S S S S S S S S S S S H E E E E
 
 ----------------------------------|-----------------------|
 ----------------------------------|-----------------------|
 ----------------------------------|-----------------------|
 ----------7-7-7-7---------5-5-5-5-|--2--------L--------8--|
 --9-9-9-9---------6-6-6-6---------|--2--------L--------8--|
 ----------------------------------|--0--------L--2--3--6--|

PM PM PM PM PM PM PM
H E E E E W E Q. S S E S S E
 
 -----------------------|-------------------|------------------------------|
 -----------------------|-------------------|------------------------------|
 -----------------------|-------------------|------------------------------|
 --7--------L-----8--7--|--6----------------|--6--6------------------------|
 --7--------L-----8--7--|--6----------------|--6--6------5--5--5--5--5--5--|
 --5--------L--0--6--5--|--4----------------|--4--4------3--3--3--3--3--3--|

PM PM PM
H E E E E H E E E E W
 
 -----------------------|-----------------------|-------------------|
 -----------------------|-----------------------|-------------------|
 -----------------------|-----------------------|-------------------|
 --2--------L--------8--|--7--------L-----8--7--|--6----------------|
 --2--------L--------8--|--7--------L-----8--7--|--6----------------|
 --0--------L--2--3--6--|--5--------L--0--6--5--|--4----------------|

PM PM PM
 
 |----3----| 

E Q. Q Q Q H E E E E H E E E E
 
 ---------------------------|-----------------------|-----------------------|
 ---------------------------|-----------------------|-----------------------|
 ---------------------------|-----------------------|-----------------------|
 --5--5------4----5----7----|--2--------L--------8--|--7--------L-----8--7--|
 --5--5------4----5----7----|--2--------L--------8--|--7--------L-----8--7--|
 --3--3------2----3----5----|--0--------L--2--3--6--|--5--------L--0--6--5--|

PM PM PM PM PM PM PM PM
W E Q. S S E S S E H E E E E
 
 -------------------|------------------------------|-----------------------|
 -------------------|------------------------------|-----------------------|
 -------------------|------------------------------|-----------------------|
 --6----------------|--6--6------------------------|--2--------L--------8--|
 --6----------------|--6--6------5--5--5--5--5--5--|--2--------L--------8--|
 --4----------------|--4--4------3--3--3--3--3--3--|--0--------L--2--3--6--|

PM
 
 |----3----| 

H E E E E W E Q. Q Q Q
 
 -----------------------|-------------------|---------------------------|
 -----------------------|-------------------|---------------------------|
 -----------------------|-------------------|---------------------------|
 --7--------L-----8--7--|--6----------------|--5--5------4----5----7----|
 --7--------L-----8--7--|--6----------------|--5--5------4----5----7----|
 --5--------L--0--6--5--|--4----------------|--3--3------2----3----5----|

H. Q H Q Q W
 
 --------------------|---------------------|-------------------|
 --------------------|---------------------|-------------------|
 --------------------|---------------------|-------------------|
 --4------------4----|--5--------5----2----|--4----------------|
 --4------------4----|--5--------5----2----|--4----------------|
 --2------------2----|--3--------3----0----|--2----------------|

Q E E Q Q H. Q H Q Q
 
 ------------------------|--------------------|---------------------|
 ------------------------|--------------------|---------------------|
 ------------------------|--------------------|---------------------|
 --5-----------8----7----|--4------------4----|--5--------5----2----|
 --5-----------8----7----|--4------------4----|--5--------5----2----|
 --3----0h--3--6----5----|--2------------2----|--3--------3----0----|

W Q E E Q Q
 
 -------------------|------------------------|
 -------------------|------------------------|
 -------------------|------------------------|
 --4----------------|--5-----------8----7----|
 --4----------------|--5-----------8----7----|
 --2----------------|--3----0h--3--6----5----|

PM PM PM PM PM PM PM PM PM PM PM PM PM PM PM PM
Q S S S S S S S S S S S S Q S S S S Q Q
 
 -------------------------------------------|-----------------------------|
 -------------------------------------------|-----------------------------|
 -------------------------------------------|-----------------------------|
 -------------------------------------------|-----------------------------|
 --4----------------------------------------|--5----------------5----2----|
 --2----2--2--2--2--2--2--2--2--2--2--2--2--|--3----3--3--3--3--3----0----|

PM PM PM PM PM PM PM PM PM PM PM PM
Q S S S S S S S S S S S S Q E E Q Q
 
 -------------------------------------------|------------------------|
 -------------------------------------------|------------------------|
 -------------------------------------------|------------------------|
 -------------------------------------------|------------------------|
 --4----------------------------------------|--5-----------8----7----|
 --2----2--2--2--2--2--2--2--2--2--2--2--2--|--3----0h--3--6----5----|

PM PM PM PM PM PM PM PM PM PM PM PM PM PM PM PM
Q S S S S S S S S S S S S Q S S S S Q Q
 
 -------------------------------------------|-----------------------------|
 -------------------------------------------|-----------------------------|
 -------------------------------------------|-----------------------------|
 -------------------------------------------|-----------------------------|
 --4----------------------------------------|--5----------------5----2----|
 --2----2--2--2--2--2--2--2--2--2--2--2--2--|--3----3--3--3--3--3----0----|

PM PM PM PM PM PM PM PM PM PM PM PM
Q S S S S S S S S S S S S Q E E E E E E
 
 -------------------------------------------|--------------------------|
 -------------------------------------------|--------------------------|
 -------------------------------------------|--------------------------|
 -------------------------------------------|--------------------------|
 --4----------------------------------------|--5-----------8--7--7--8--|
 --2----2--2--2--2--2--2--2--2--2--2--2--2--|--3----0h--3--6--5--5--6--|

E E E E E E Q E E E E E E E E E E E E E E Q
 
 -------------------------|--------------------------|-------------------------|
 -------------------------|--------------------------|-------------------------|
 -------------------------|--------------------------|-------------------------|
 -------------------------|--------------------------|-------------------------|
 --3--3--3--4--4--4--6----|--3--3--3--4--4--4--6--5--|--3--3--3--4--4--4--6----|
 --1--1--1--2--2--2--4----|--1--1--1--2--2--2--4--3--|--1--1--1--2--2--2--4----|

E E E E E E E E E E E E E E Q E E E E E E E E
 
 --------------------------|-------------------------|--------------------------|
 --------------------------|-------------------------|--------------------------|
 --------------------------|-------------------------|--------------------------|
 --------------------------|-------------------------|--------------------------|
 --3--3--3--4--4--4--6--5--|--3--3--3--4--4--4--6----|--3--3--3--4--4--4--6--5--|
 --1--1--1--2--2--2--4--3--|--1--1--1--2--2--2--4----|--1--1--1--2--2--2--4--3--|

E E E E E E Q E E E E E E E E Q E E E E E E
 
 -------------------------|--------------------------|-------------------------|
 -------------------------|--------------------------|-------------------------|
 -------------------------|--------------------------|-------------------------|
 -------------------------|--------------------------|-------------------------|
 --3--3--3--4--4--4--6----|--3--3--3--4--4--4--6--5--|--4----4--2--4--4--4--6--|
 --1--1--1--2--2--2--4----|--1--1--1--2--2--2--4--3--|--2----2--0--2--2--2--4--|

Q E E E E E E Q E E E E Q Q Q Q Q
 
 -------------------------|------------------------|----------------------|
 -------------------------|------------------------|----------------------|
 -------------------------|------------------------|----------------------|
 -------------------------|------------------------|----------------------|
 --5----5--4--5--5--5--6--|--4----4--2--4--4--4----|--8----8----7----7----|
 --3----3--2--3--3--3--4--|--2----2--0--2--2--2----|--6----6----5----5----|

Q E E E E E E Q E E E E E E Q E E E E Q
 
 -------------------------|-------------------------|------------------------|
 -------------------------|-------------------------|------------------------|
 -------------------------|-------------------------|------------------------|
 -------------------------|-------------------------|------------------------|
 --4----4--2--4--4--4--6--|--5----5--4--5--5--5--6--|--4----4--2--4--4--4----|
 --2----2--0--2--2--2--4--|--3----3--2--3--3--3--4--|--2----2--0--2--2--2----|

Q Q Q Q S S S S S S S S S S S S S S E
 
 ----------------------|---------------------------------|
 ----------------------|---------------------------------|
 ----------------------|---------------------------------|
 ----------------------|--------------------------5-4-5--|
 --8----8----7----7----|--7-7-7-7-7-7-7-7-7-7-7-7--------|
 --6----6----5----5----|---------------------------------|

S S S S S S E S S S S S S S S S S S S S S S S S S S S S S E
 
 ---------------------------------|---------------------------------|
 ---------------------------------|---------------------------------|
 ---------------------------------|---------------------------------|
 --7-7-7-7-5-7-5--4-4-4-4---------|---------------------------------|
 -------------------------7-7-7-7-|--6-6-6-6-6-6-6-6-6-6-6-6-7-6-7--|
 ---------------------------------|---------------------------------|

S S S S S S S S S S S S S S S S S S S S S S S S S S S S S S E
 
 ----------------------------------|---------------------------------|
 ----------------------------------|---------------------------------|
 ----------------------------------|---------------------------------|
 ----------7-7-7-7---------5-5-5-5-|--------------------------5-4-5--|
 --9-9-9-9---------6-6-6-6---------|--7-7-7-7-7-7-7-7-7-7-7-7--------|
 ----------------------------------|---------------------------------|

S S S S S S E S S S S S S S S S S S S S S S S S S S S S S E
 
 ---------------------------------|---------------------------------|
 ---------------------------------|---------------------------------|
 ---------------------------------|---------------------------------|
 --7-7-7-7-5-7-5--4-4-4-4---------|---------------------------------|
 -------------------------7-7-7-7-|--6-6-6-6-6-6-6-6-6-6-6-6-7-6-7--|
 ---------------------------------|---------------------------------|

PM PM
S S S S S S S S S S S S S S S S H E E E E
 
 ----------------------------------|-----------------------|
 ----------------------------------|-----------------------|
 ----------------------------------|-----------------------|
 ----------7-7-7-7---------5-5-5-5-|--2--------L--------8--|
 --9-9-9-9---------6-6-6-6---------|--2--------L--------8--|
 ----------------------------------|--0--------L--2--3--6--|

PM PM PM PM PM PM PM
H E E E E W E Q. S S E S S E
 
 -----------------------|-------------------|------------------------------|
 -----------------------|-------------------|------------------------------|
 -----------------------|-------------------|------------------------------|
 --7--------L-----8--7--|--6----------------|--6--6------------------------|
 --7--------L-----8--7--|--6----------------|--6--6------5--5--5--5--5--5--|
 --5--------L--0--6--5--|--4----------------|--4--4------3--3--3--3--3--3--|

PM PM PM
H E E E E H E E E E W
 
 -----------------------|-----------------------|-------------------|
 -----------------------|-----------------------|-------------------|
 -----------------------|-----------------------|-------------------|
 --2--------L--------8--|--7--------L-----8--7--|--6----------------|
 --2--------L--------8--|--7--------L-----8--7--|--6----------------|
 --0--------L--2--3--6--|--5--------L--0--6--5--|--4----------------|
 |----3----| 

E Q. Q Q Q H. Q H Q Q
 
 ---------------------------|--------------------|---------------------|
 ---------------------------|--------------------|---------------------|
 ---------------------------|--------------------|---------------------|
 --5--5------4----5----7----|--4------------4----|--5--------5----2----|
 --5--5------4----5----7----|--4------------4----|--5--------5----2----|
 --3--3------2----3----5----|--2------------2----|--3--------3----0----|

W Q E E Q Q H. Q
 
 -------------------|------------------------|--------------------|
 -------------------|------------------------|--------------------|
 -------------------|------------------------|--------------------|
 --4----------------|--5-----------8----7----|--4------------4----|
 --4----------------|--5-----------8----7----|--4------------4----|
 --2----------------|--3----0h--3--6----5----|--2------------2----|

H Q Q W Q E E Q Q
 
 ---------------------|-------------------|------------------------|
 ---------------------|-------------------|------------------------|
 ---------------------|-------------------|------------------------|
 --5--------5----2----|--4----------------|--5-----------8----7----|
 --5--------5----2----|--4----------------|--5-----------8----7----|
 --3--------3----0----|--2----------------|--3----0h--3--6----5----|

PM PM PM PM PM PM PM PM PM PM PM PM PM PM PM PM
Q S S S S S S S S S S S S Q S S S S Q Q
 
 -------------------------------------------|-----------------------------|
 -------------------------------------------|-----------------------------|
 -------------------------------------------|-----------------------------|
 -------------------------------------------|-----------------------------|
 --4----------------------------------------|--5----------------5----2----|
 --2----2--2--2--2--2--2--2--2--2--2--2--2--|--3----3--3--3--3--3----0----|

PM PM PM PM PM PM PM PM PM PM PM PM
Q S S S S S S S S S S S S Q E E Q Q
 
 -------------------------------------------|------------------------|
 -------------------------------------------|------------------------|
 -------------------------------------------|------------------------|
 -------------------------------------------|------------------------|
 --4----------------------------------------|--5-----------8----7----|
 --2----2--2--2--2--2--2--2--2--2--2--2--2--|--3----0h--3--6----5----|

PM PM PM PM PM PM PM PM PM PM PM PM PM PM PM PM
Q S S S S S S S S S S S S Q S S S S Q Q
 
 -------------------------------------------|-----------------------------|
 -------------------------------------------|-----------------------------|
 -------------------------------------------|-----------------------------|
 -------------------------------------------|-----------------------------|
 --4----------------------------------------|--5----------------5----2----|
 --2----2--2--2--2--2--2--2--2--2--2--2--2--|--3----3--3--3--3--3----0----|

PM PM PM PM PM PM PM PM PM PM PM PM
Q S S S S S S S S S S S S Q E E E E E E
 
 -------------------------------------------|--------------------------|
 -------------------------------------------|--------------------------|
 -------------------------------------------|--------------------------|
 -------------------------------------------|--------------------------|
 --4----------------------------------------|--5-----------8--7--7--8--|
 --2----2--2--2--2--2--2--2--2--2--2--2--2--|--3----0h--3--6--5--5--6--|

E E E E E E Q E E E E E E E E E E E E E E Q
 
 -------------------------|--------------------------|-------------------------|
 -------------------------|--------------------------|-------------------------|
 -------------------------|--------------------------|-------------------------|
 -------------------------|--------------------------|-------------------------|
 --3--3--3--4--4--4--6----|--3--3--3--4--4--4--6--5--|--3--3--3--4--4--4--6----|
 --1--1--1--2--2--2--4----|--1--1--1--2--2--2--4--3--|--1--1--1--2--2--2--4----|

E E E E E E E E E E E E E E Q E E E E E E E E
 
 --------------------------|-------------------------|--------------------------|
 --------------------------|-------------------------|--------------------------|
 --------------------------|-------------------------|--------------------------|
 --------------------------|-------------------------|--------------------------|
 --3--3--3--4--4--4--6--5--|--3--3--3--4--4--4--6----|--3--3--3--4--4--4--6--5--|
 --1--1--1--2--2--2--4--3--|--1--1--1--2--2--2--4----|--1--1--1--2--2--2--4--3--|

E E E E E E Q E E E E E E Q E E E E E E Q
 
 -------------------------|-------------------------|-------------------------|
 -------------------------|-------------------------|-------------------------|
 -------------------------|-------------------------|-------------------------|
 -------------------------|-------------------------|-------------------------|
 --3--3--3--4--4--4--6----|--3--3--3--4--4--4-------|--3--3--3--4--4--4--6----|
 --1--1--1--2--2--2--4----|--1--1--1--2--2--2-------|--1--1--1--2--2--2--4----|

E E E E E E E E E E E E E E Q E E E E E E E E
 
 --------------------------|-------------------------|--------------------------|
 --------------------------|-------------------------|--------------------------|
 --------------------------|-------------------------|--------------------------|
 --------------------------|-------------------------|--------------------------|
 --3--3--3--4--4--4--6--5--|--3--3--3--4--4--4--6----|--3--3--3--4--4--4--6--5--|
 --1--1--1--2--2--2--4--3--|--1--1--1--2--2--2--4----|--1--1--1--2--2--2--4--3--|

E E E E E E Q E E E E E E E E E E E E E E Q
 
 -------------------------|--------------------------|-------------------------|
 -------------------------|--------------------------|-------------------------|
 -------------------------|--------------------------|-------------------------|
 -------------------------|--------------------------|-------------------------|
 --3--3--3--4--4--4--6----|--3--3--3--4--4--4--6--5--|--3--3--3--4--4--4--6----|
 --1--1--1--2--2--2--4----|--1--1--1--2--2--2--4--3--|--1--1--1--2--2--2--4----|

E E E E E E E E Q E E E E E E Q E E E E E E
 
 --------------------------|-------------------------|-------------------------|
 --------------------------|-------------------------|-------------------------|
 --------------------------|-------------------------|-------------------------|
 --------------------------|-------------------------|-------------------------|
 --3--3--3--4--4--4--6--5--|--4----4--2--4--4--4--6--|--5----5--4--5--5--5--6--|
 --1--1--1--2--2--2--4--3--|--2----2--0--2--2--2--4--|--3----3--2--3--3--3--4--|

Q E E E E Q Q Q Q Q Q E E E E E E
 
 ------------------------|----------------------|-------------------------|
 ------------------------|----------------------|-------------------------|
 ------------------------|----------------------|-------------------------|
 ------------------------|----------------------|-------------------------|
 --4----4--2--4--4--4----|--8----8----7----7----|--4----4--2--4--4--4--6--|
 --2----2--0--2--2--2----|--6----6----5----5----|--2----2--0--2--2--2--4--|

Q E E E E E E Q E E E E Q E E Q E E E E
 
 -------------------------|------------------------|-------------------------|
 -------------------------|------------------------|-------------------------|
 -------------------------|------------------------|-------------------------|
 -------------------------|------------------------|-------------------------|
 --5----5--4--5--5--5--6--|--4----4--2--4--4--4----|--3--3-------3--6--5--3--|
 --3----3--2--3--3--3--4--|--2----2--0--2--2--2----|--1--1-------1--4--3--1--|

PM
W W E E E E Q E E
 
 -------------------|-------------------|-------------------------|
 -------------------|-------------------|-------------------------|
 -------------------|-------------------|-------------------------|
 -------------------|-------------------|-------------------------|
 --5----------------|--L----------------|--5--7--7--5--8----------|
 -------------------|-------------------|--3--5--5--3--6----5-----|

E E E E E S S S S S S W W
 
 -----------------------------|-------------------|-------------------|
 -----------------------------|-------------------|-------------------|
 -----------------------------|-------------------|-------------------|
 -----------------------------|-------------------|--3----------------|
 --5--7--7-----3--2-3-5-3-3-2-|--5----------------|-------------------|
 --3--5--5--0-----------------|-------------------|-------------------|

PM
E E E E Q E E E Q E E E E E
 
 -------------------------|-------------------------|
 -------------------------|-------------------------|
 -------------------------|-------------------------|
 -------------------------|-------------------------|
 --5--7--7--5--8----------|--5--7-------3--6--5--3--|
 --3--5--5--3--6----5-----|--3--5----0--1--4--3--1--|

S S S S S S S S S S S S S S S S S S S S S S S S S S S S S S S S
 
 ------------------------------------|----------------------------------|
 ------------------------------------|----------------------------------|
 ------------------------------------|----------------------------------|
 ------------------------------------|----------------------------------|
 --5-5-5-5-5-5-5-5-5-5-5-5-6p-3-6p-3-|--5-5-5-5-5-5-5-5-5-5-5-5-5-5-5-5-|
 ------------------------------------|----------------------------------|

PM
|--3--|
E E E E Q E E E E E E E S S E E E
 
 -------------------------|------------------------------|
 -------------------------|------------------------------|
 -------------------------|------------------------------|
 -------------------------|------------------------------|
 --5--7--7--5--8----------|--5--7--7-----3--2-3-5--3--2--|
 --3--5--5--3--6----5-----|--3--5--5--0------------------|

S S S S S S S S S S S S S S S S S S S S S S S S S S S S S S S S
 
 ------------------------------------|----------------------------------|
 ------------------------------------|----------------------------------|
 ------------------------------------|----------------------------------|
 ------------------------------------|----------------------------------|
 --5-5-5-5-5-5-5-5-5-5-5-5-6p-3-6p-3-|--5-5-5-5-5-5-5-5-5-5-5-5-5-5-5-5-|
 ------------------------------------|----------------------------------|

PM
E E E E Q E E E E E E E E E E
 
 -------------------------|--------------------------|
 -------------------------|--------------------------|
 -------------------------|--------------------------|
 -------------------------|--------------------------|
 --5--7--7--5--8----------|--5--7--7-----3--6--5--3--|
 --3--5--5--3--6----5-----|--3--5--5--0--1--4--3--1--|

S S S S S S S S S S S S S S S S S S S S S S S S S S S S S S S S
 
 ------------------------------------|----------------------------------|
 ------------------------------------|----------------------------------|
 ------------------------------------|----------------------------------|
 --3-3-3-3-3-3-3-3-3-3-3-3-5p-3-5p-3-|--3-3-3-3-3-3-3-3-3-3-3-3-3-3-3-3-|
 ------------------------------------|----------------------------------|
 ------------------------------------|----------------------------------|

PM
|--3--|
E E E E Q E E E E E E E S S E E E
 
 -------------------------|------------------------------|
 -------------------------|------------------------------|
 -------------------------|------------------------------|
 -------------------------|------------------------------|
 --5--7--7--5--8----------|--5--7--7-----3--2-3-5--3--2--|
 --3--5--5--3--6----5-----|--3--5--5--0------------------|

S S S S S S S S S S S S S S S S S S S S S S S S S S S S S S S S
 
 ------------------------------------|----------------------------------|
 ------------------------------------|----------------------------------|
 ------------------------------------|----------------------------------|
 --3-3-3-3-3-3-3-3-3-3-3-3-5p-3-5p-3-|--3-3-3-3-3-3-3-3-3-3-3-3-3-3-3-3-|
 ------------------------------------|----------------------------------|
 ------------------------------------|----------------------------------|

PM PM
E E E E Q E E E E E E Q Q E E E E Q E E
 
 -------------------------|------------------------|-------------------------|
 -------------------------|------------------------|-------------------------|
 -------------------------|------------------------|-------------------------|
 -------------------------|------------------------|-------------------------|
 --5--7--7--5--8----------|--5--7--7--5--8----8----|--5--7--7--5--8----------|
 --3--5--5--3--6----5-----|--3--5--5--3--6----6----|--3--5--5--3--6----5-----|

E E E E E E E S S Q Q H
 
 ----------------------------|---------------------|----|----|----|----|----|
 ----------------------------|---------------------|----|----|----|----|----|
 ----------------------------|---------------------|----|----|----|----|----|
 ----------------------------|---------------------|----|----|----|----|----|
 --5--7--7--------7-----6p-0-|--3------------------|----|----|----|----|----|
 --3--5--5--0--6-----5-------|--1------------------|----|----|----|----|----|

E E E E E E Q E E E E E E E E
 
 ----|----|-------------------------|--------------------------|
 ----|----|-------------------------|--------------------------|
 ----|----|-------------------------|--------------------------|
 ----|----|-------------------------|--------------------------|
 ----|----|--3--3--3--4--4--4--6----|--3--3--3--4--4--4--6--5--|
 ----|----|--1--1--1--2--2--2--4----|--1--1--1--2--2--2--4--3--|

E E E E E E Q E E E E E E E E E E E E E E Q
 
 -------------------------|--------------------------|-------------------------|
 -------------------------|--------------------------|-------------------------|
 -------------------------|--------------------------|-------------------------|
 -------------------------|--------------------------|-------------------------|
 --3--3--3--4--4--4--6----|--3--3--3--4--4--4--6--5--|--3--3--3--4--4--4--6----|
 --1--1--1--2--2--2--4----|--1--1--1--2--2--2--4--3--|--1--1--1--2--2--2--4----|

E E E E E E E E E E E E E E Q E E E E E E Q
 
 --------------------------|-------------------------|-------------------------|
 --------------------------|-------------------------|-------------------------|
 --------------------------|-------------------------|-------------------------|
 --------------------------|-------------------------|-------------------------|
 --3--3--3--4--4--4--6--5--|--3--3--3--4--4--4--6----|--3--3--3--4--4--4-------|
 --1--1--1--2--2--2--4--3--|--1--1--1--2--2--2--4----|--1--1--1--2--2--2-------|

E E E E E E Q E E E E E E E E E E E E E E Q
 
 -------------------------|--------------------------|-------------------------|
 -------------------------|--------------------------|-------------------------|
 -------------------------|--------------------------|-------------------------|
 -------------------------|--------------------------|-------------------------|
 --3--3--3--4--4--4--6----|--3--3--3--4--4--4--6--5--|--3--3--3--4--4--4--6----|
 --1--1--1--2--2--2--4----|--1--1--1--2--2--2--4--3--|--1--1--1--2--2--2--4----|

E E E E E E E E E E E E E E Q E E E E E E E E
 
 --------------------------|-------------------------|--------------------------|
 --------------------------|-------------------------|--------------------------|
 --------------------------|-------------------------|--------------------------|
 --------------------------|-------------------------|--------------------------|
 --3--3--3--4--4--4--6--5--|--3--3--3--4--4--4--6----|--3--3--3--4--4--4--6--5--|
 --1--1--1--2--2--2--4--3--|--1--1--1--2--2--2--4----|--1--1--1--2--2--2--4--3--|

E E E E E E Q E E E E E E Q E E E E E E Q
 
 -------------------------|-------------------------|-------------------------|
 -------------------------|-------------------------|-------------------------|
 -------------------------|-------------------------|-------------------------|
 -------------------------|-------------------------|-------------------------|
 --3--3--3--4--4--4--6----|--3--3--3--4--4--4-------|--3--3--3--4--4--4--6----|
 --1--1--1--2--2--2--4----|--1--1--1--2--2--2-------|--1--1--1--2--2--2--4----|

E E E E E E E E E E E E E E Q E E E E E E E E
 
 --------------------------|-------------------------|--------------------------|
 --------------------------|-------------------------|--------------------------|
 --------------------------|-------------------------|--------------------------|
 --------------------------|-------------------------|--------------------------|
 --3--3--3--4--4--4--6--5--|--3--3--3--4--4--4--6----|--3--3--3--4--4--4--6--5--|
 --1--1--1--2--2--2--4--3--|--1--1--1--2--2--2--4----|--1--1--1--2--2--2--4--3--|

E E E E E E Q E E E E E E E E E E E E E E Q
 
 -------------------------|--------------------------|-------------------------|
 -------------------------|--------------------------|-------------------------|
 -------------------------|--------------------------|-------------------------|
 -------------------------|--------------------------|-------------------------|
 --3--3--3--4--4--4--6----|--3--3--3--4--4--4--6--5--|--3--3--3--4--4--4--6----|
 --1--1--1--2--2--2--4----|--1--1--1--2--2--2--4--3--|--1--1--1--2--2--2--4----|

E E E E E E E E S S S S S S S S S S S S S S S S
 
 --------------------------|----------------------------------|
 --------------------------|----------------------------------|
 --------------------------|----------------------------------|
 --------------------------|----------------------------------|
 --3--3--3--4--4--4--6--5--|----------------------------------|
 --1--1--1--2--2--2--4--3--|--0-0-0-0-0-0-0-0-0-0-2-2-3-3-2-2-|

S S S S S S S S S S S S S S S S S S S S S S S S S S S S S S E
 
 ----------------------------------|----------------------------------|
 ----------------------------------|----------------------------------|
 ----------------------------------|----------8-8-8-8-----------------|
 ----------------------------------|------------------8-8-8-8-9-9-9\--|
 ----------------------------------|--6-6-6-6-------------------------|
 --5-5-5-5-3-3-5-3-2-2-2-2-0-0-0-0-|----------------------------------|

S S S S S S S S S S S S S S S S S S S S S S S S S S S S S S S S
 
 ----------------------------------|----------------------------------|
 ----------------------------------|----------------------------------|
 ----------------------------------|----------------------------------|
 ----------------------------------|----------------------------------|
 ----------------------------------|----------------------------------|
 --2-2-2-2-5-5-5-5-0-0-0-0-3-3-3-3-|--0-0-0-0-0-0-0-0-0-0-2-2-3-3-2-2-|

S S S S S S S S S S S S S S S S S S S S S S S S S S S S S S E
 
 ----------------------------------|----------------------------------|
 ----------------------------------|----------------------------------|
 ----------------------------------|----------8-8-8-8-----------------|
 ----------------------------------|------------------8-8-8-8-9-9-9\--|
 ----------------------------------|--6-6-6-6-------------------------|
 --5-5-5-5-3-3-5-3-2-2-2-2-0-0-0-0-|----------------------------------|
 |--3--| |--3--| |--3--| |--3--| 

S S S S S S S S S S S S S S S S E E E E E E E E E E E E
 
 ----------------------------------|--------------------------------------|
 ----------------------------------|--------------------------------------|
 ----------------------------------|--------------------------------------|
 ----------------------------------|--------------------------------------|
 ----------------------------------|--0--0--0--0--0--0--0--0--0--2--3--2--|
 --2-2-2-2-5-5-5-5-0-0-0-0-3-3-3-3-|--------------------------------------|
 |--3--| |--3--| |--3--| |--3--| |--3--| |--3--| |--3--| |--3--| 

[E] [E] [E] [E] [E] [E] [E] [E] [E] [E] [E] [E] [E] [E] [E] [E] [E] [E] [E] [E] [E] [E] [E] [E]  
 
 --------------------------------------|--------------------------------------|
 --------------------------------------|--------------------------------------|
 --------------------------------------|--------------------------------------|
 --------------------------------------|--------------------------------------|
 --5--5--5--3--5--3--2--2--2--0--0--0--|--------------------------------------|
 --------------------------------------|--4--4--4--4--4--4--4--4--4--5--7--5--|
 |--3--| |--3--| |--3--| |--3--| |--3--| |--3--| |--3--| |--3--| 

[E] [E] [E] [E] [E] [E] [E] [E] [E] [E] [E] [E] [E] [E] [E] [E] [E] [E] [E] [E] [E] [E] [E] [E]  
 
 --------------------------------------|--------------------------------------|
 --------------------------------------|--------------------------------------|
 --------------------------------------|--------------------------------------|
 --------------------------------------|--------------------------------------|
 -----------5--5--5-----------3--3--3--|--0--0--0--0--0--0--0--0--0--2--3--2--|
 --7--7--7-----------5--5--5-----------|--------------------------------------|
 |--3--| |--3--| |--3--| |--3--| |--3--| |--3--| |--3--| |--3--| 

[E] [E] [E] [E] [E] [E] [E] [E] [E] [E] [E] [E] [E] [E] [E] [E] [E] [E] [E] [E] [E] [E] [E] [E]  
 
 --------------------------------------|--------------------------------------|
 --------------------------------------|--------------------------------------|
 --------------------------------------|--------------------------------------|
 --------------------------------------|--------------------------------------|
 --5--5--5--3--5--3--2--2--2--0--0--0--|--------------------------------------|
 --------------------------------------|--4--4--4--4--4--4--4--4--4--5--7--5--|
 |--3--| |--3--| |--3--| |--3--| 

E E E E E E E E E E E E S S S S S S S S S S S S S S E
 
 --------------------------------------|---------------------------------|
 --------------------------------------|---------------------------------|
 --------------------------------------|---------------------------------|
 --------------------------------------|--------------------------5-4-5--|
 -----------5--5--5-----------3--3--3--|--7-7-7-7-7-7-7-7-7-7-7-7--------|
 --7--7--7-----------5--5--5-----------|---------------------------------|

S S S S S S E S S S S S S S S S S S S S S S S S S S S S S S S
 
 ---------------------------------|----------------------------------|
 ---------------------------------|----------------------------------|
 ---------------------------------|----------------------------------|
 --7-7-7-7-5-7-5--4-4-4-4---------|----------------------------------|
 -------------------------7-7-7-7-|--6-6-6-6-6-6-6-6-6-6-7-7-6-6-7-7-|
 ---------------------------------|----------------------------------|

S S S S S S S S S S S S S S S S S S S S S S S S S S S S S S E
 
 ----------------------------------|---------------------------------|
 ----------------------------------|---------------------------------|
 ----------------------------------|---------------------------------|
 ----------7-7-7-7---------5-5-5-5-|--------------------------5-4-5--|
 --9-9-9-9---------6-6-6-6---------|--7-7-7-7-7-7-7-7-7-7-7-7--------|
 ----------------------------------|---------------------------------|

S S S S S S E S S S S S S S S S S S S S S S S S S S S S S S S
 
 ---------------------------------|----------------------------------|
 ---------------------------------|----------------------------------|
 ---------------------------------|----------------------------------|
 --7-7-7-7-5-7-5--4-4-4-4---------|----------------------------------|
 -------------------------7-7-7-7-|--6-6-6-6-6-6-6-6-6-6-7-7-6-6-7-7-|
 ---------------------------------|----------------------------------|

S S S S S S S S S S S S S S S S S S S S S S S S S S S S S S E
 
 ----------------------------------|---------------------------------|
 ----------------------------------|---------------------------------|
 ----------------------------------|---------------------------------|
 ----------7-7-7-7---------5-5-5-5-|--------------------------5-4-5--|
 --9-9-9-9---------6-6-6-6---------|--7-7-7-7-7-7-7-7-7-7-7-7--------|
 ----------------------------------|---------------------------------|

S S S S S S E S S S S S S S S S S S S S S S S S S S S S S S S
 
 ---------------------------------|----------------------------------|
 ---------------------------------|----------------------------------|
 ---------------------------------|----------------------------------|
 --7-7-7-7-5-7-5--4-4-4-4---------|----------------------------------|
 -------------------------7-7-7-7-|--6-6-6-6-6-6-6-6-6-6-7-7-6-6-7-7-|
 ---------------------------------|----------------------------------|

S S S S S S S S S S S S S S S S S S S S S S S S S S S S S S E
 
 ----------------------------------|---------------------------------|
 ----------------------------------|---------------------------------|
 ----------------------------------|---------------------------------|
 ----------7-7-7-7---------5-5-5-5-|--------------------------5-4-5--|
 --9-9-9-9---------6-6-6-6---------|--7-7-7-7-7-7-7-7-7-7-7-7--------|
 ----------------------------------|---------------------------------|

S S S S S S E S S S S S S S S H E E E E
 
 ---------------------------------|-----------------------|
 ---------------------------------|-----------------------|
 ---------------------------------|-----------------------|
 --7-7-7-7-5-7-5--4-4-4-4---------|-----------------------|
 -------------------------7-7-7-7-|--6--------L--6--7--6--|
 ---------------------------------|-----------------------|

Q Q Q Q W W
 
 ----------------------|--------------------|-------------------|
 ----------------------|--------------------|-------------------|
 ----------------------|--------------------|-------------------|
 -------7--------------|--------------------|-------------------|
 --9---------7----6----|--7~----------------|--L----------------|
 ----------------------|--------------------|-------------------|

H H W
 
 --------------------|-------------------||
 --------------------|-------------------||
 --------------------|-------------------||
 --------------------|-------------------||
 --L--------L--------|--L----------------||
 --------------------|-------------------||

Libertina Grimm DCGFAD

Important: The song above is NOT stored on the Chordie server. The original song is hosted at www.guitaretab.com. Chordie works as a search engine and provides on-the-fly formatting. Chordie does not index songs against artists'/composers' will. To remove this song please click here.

Text color:
Chord color:
Chord grids: 
Font size:    
Page size: 

E
Rate #1 of 2 versions

Login - add to songbook

SHARE PAGE  




You need to log in to post comments