Guitar Tabs, Chords and Lyrics
Server problems seems to be fixed. Chordie has been experiencing problems with songs disappearing. These issues now seems to be fixed, but still verifying the fix. If you find anything strange, please email admin@chordie.com.


It Took a Woman  Craig Morgan

CD: That's Why
Song: It Took A Woman
Standard Tuning
Capo: None
Comment please!
___________________________________________________________________________
Intro: (Note: Mute The string where I've marked the X on the intro)
[D] [D]  
 
 E|--------------------------3----2------------------------------3-----X--------|
 B|--------------------0----------3------------------------0-----------3--------|
 G|----------------------0--------2--------------------------0---------2--------|
 D|---0-2-4-2-0------0-----0------0------0-2-4-2-0------0------0-------0--------|
 A|--------------0-2-----------4--------------------2---------------4-----------|
 e|---------------------------------------------------3-------------------------|

It took a [D]bully ridin' my back, to make me man [A]enough to fight
And a [G]summer with my [D]grandad, to find [Asus]out what hard work's[A] like
It took that [D]football coach in high school, to make me [A]tougher than the rest
And that [G]first beer with my [D]daddy, to put that [Asus]first hair on my[A] chest
It took a [G]heart to heart with [D]Jesus, to [Asus]bring me to my[A] knees
But it took a [G]woman to make a [A]man out of [D]me
:Chorus:
It took a pair of [G]soft blue eyes, And a [D]smile so sweet
To make me [G]reach up [D]high, and really [Asus]dig down[A] deep
She made me [G]so much [D]more, than [Asus]who I used to[A] be
It took a [G]woman to make a [A]man out of [D]me
It took the [D]first year we we're datin', and hangin' [A]to much with the boys
For her to [G]give an ulti[D]matum, for me I'll [Asus]have to make a[A] choice
It took that [D]one add in the paper, to sell that [A]sixty eight fire bird
And buy that [G]diamond ring I [D]gave her, and rent [Asus]out that little[A] church
It took the [G]day my baby [D]girl was born, to make a [Asus]tear roll down my[A] cheek
But it took a [G]woman to make a [A]man out of [D]me
:Chorus:
It took a pair of [G]soft blue eyes, And a [D]smile so sweet
To make me [G]reach up [D]high, and really [Asus]dig down[A] deep
She made me [G]so much [D]more, than [Asus]who I used to[A] be
Yeah, it took a [G]woman to make a [A]man out of [D]me
:Instrumental:
G, D, A x2
She made me [G]so much [D]more, than [Asus]who I used to[A] be
Yeah, it took a [G]woman, Oh it took a [Asus]woman, to make a[A] man out of[D] me
:Outro:
[D]  
 
 E|--------------------------3----2-|
 B|--------------------0----------3-|
 G|----------------------0--------2-|
 D|---0-2-4-2-0------0-----0------0-|
 A|--------------0-2-----------4----|
 e|---------------------------------|


Important: The song above is NOT stored on the Chordie server. The original song is hosted at www.guitaretab.com. Chordie works as a search engine and provides on-the-fly formatting. Chordie does not index songs against artists'/composers' will. To remove this song please click here.

Text color:
Chord color:
Chord grids: 
Font size:    
Page size: 

A Asus D G
Rate #1 of 4 versions

Login - add to songbook

SHARE PAGE  




You need to log in to post comments