Guitar Tabs, Chords and Lyrics
Major upgrade!! After one year development the new version of Chordie is now online! Please give feedback.


Naked Girl Falling Down the Stairs   The Cramps

 
 E----------------------0-0-0-0------------|
 B----------------------0-0-0-0------------|
 G----------------------0-0-0-0------------| Shit im not telling you
 D--7-7-7--5-5-5--3-3---2-2-2-2------------|
 A--7-7-7--5-5-5--3-3---2-2-2-2------------|
 E--5-5-5--3-3-3--1-1-0-0-0-0-0------------|

 


 


 or you guys could try


 


 

 
 E-----------------------0-0-0-0------------|
 B-----------------------0-0-0-0------------|
 G-----------------------0-0-0-0------------|
 D--7-7-7--5-5-5--3-3-x--2-2-2-2------------|
 A--7-7-7--5-5-5--3-3-x--2-2-2-2------------|
 E--5-5-5--3-3-3--1-1-x--0-0-0-0------------|

 


 


 um what goes next???????????


 


 oh yea.........


 


 

 
 E-------------------------------------|
 B-------------------------------------|
 G-------------------------------------|
 D--7-7--5-5--7-7-7--5-5-5-5-----------|
 A--7-7--5-5--7-7-7--5-5-5-5-----------|
 E--5-5--3-3--5-5-5--3-3-3-3-----------|
 E--------------------------------------|
 B--------------------------------------|
 G--------------------------------------|
 D-7-7--7-7--7-7-7-7--------------------|
 A-7-7--7-7--7-7-7-7--------------------|
 E-5-5--5-5--5-5-5-5--------------------|

 


 


 Solo lol you have to wait like 10 seconds before this goes lol


 


 

 
 E----------------------|
 B------1---3---1-------|
 G--2-2---2---2---2-----|
 D----------------------|
 A----------------------|
 E----------------------|


Important: The song above is NOT stored on the Chordie server. The original song is hosted at www.guitaretab.com. Chordie works as a search engine and provides on-the-fly formatting. Chordie does not index songs against artists'/composers' will. To remove this song please click here.

This song is displayed as text-only. Transposing and tuning is only available for chordpro-songs.
Rate #1 of 2 versions

Login - add to songbook

SHARE PAGE  



You need to log in to post comments