Guitar Tabs, Chords and Lyrics
Major upgrade!! After one year development the new version of Chordie is now online! Please give feedback.


Do You Know   The Cranberries

 
 e|--------------|------------|-----------------|
 B|-[9]b10r9b10--|-[8]b9r8b9--|-[7]b8r7b8----5--|
 G|--------------|------------|-----------------|
 D|--------------|------------|-----------------|
 A|--------------|------------|-----------------|
 E|--------------|------------|-----------------|

 


 


 1st VERSE:


 


 Guitar 1: Chords


 Guitar 2:


 "I need you awhile


 My this was smile


 My this was smile


 I will be strong


 I will carry on


 And I'll always hold on to my smile


 


 PRECHORUS:


 

 
 What would you say? e|-5--5----4--4----3--3----0--|
 Would you say that it's sad for feeling this way? B|----------------------------|
 What would you do if you were in my shoes? G|-2--2----1--1----0--0-------|
 In my" D|-------------------------2--|(X2)

 


 


 CHORUS:


 


 Guitar 1: Chords Guitar 2:


 

 
 e|----------|----------|----------|------0--|
 B|-------3--|-------2--|-------1--|----1----|
 G|-----0----|-----2----|-----0----|--2------|
 D|---0------|---2------|---3------|-2-------|
 A|-2--------|-0--------|-3--------|---------|
 E|----------|----------|----------|---------|

 


 


 INTERLUDE(Between 1st chorus and 2nd verse):


 


 Guitar 1: Guitar 2:


 

 
 Intro Chords e|--0---0---0-------0---0------0--|
 B|--2---2---2-------1---1------0--|
 G|--2---2---1-------0---0------0--|
 D|--2---2---2-------3---3------2--|
 A|--0---0---0-------3---3------2--|
 E|--------------------------------| (X2)

 


 2nd VERSE:


 


 Guitar 1: Guitar 2:


 

 
 Chords e|--0---0---0-------0---0------0--|
 B|--2---2---2-------1---1------0--|
 G|--2---2---1-------0---0------0--|
 D|--2---2---2-------3---3------2--|
 A|--0---0---0-------3---3------2--|
 E|--------------------------------|

 


 2nd PRECHORUS:


 From: "What would you say..."


 


 Guitar 1: Guitar 2: Guitar 3:


 

 
 Chords e|----------|----------|----------|------0--| e|-5--5----4--4----3--3----0-|
 B|-------3--|-------2--|-------1--|----1----| B|---------------------------|
 G|-----0----|-----2----|-----0----|--2------| G|-2--2----1--1----0--0------|
 D|---0------|---2------|---3------|-2-------| D|-------------------------2-|(X2)
 A|-2--------|-0--------|-3--------|---------|
 E|----------|----------|----------|---------|

 


 


 2nd CHORUS and 2nd INTERLUDE parts are the same than first ones.


 


 And then, the song ends with:


 


 Guitar 1: Guitar 2: Guitar 3:


 

 
 Intro Chords e|----------------| e|-5--------5--------4--------4----------5-|
 B|-----[9]b10r9---| B|---5--------5--------5--------5----------|
 G|-4/9----------9-| G|-----6--------6--------6--------6--------|
 D|----------------| D|-----------------------------------------|
 A|----------------| A|-----------------------------------------|
 E|----------------| (X3) E|-----------------------------------------|(X3)
 e|-------|

 


 B|-9/14--|


 

 
 G|-------|
 D|-------|
 A|-------|
 E|-------|


Important: The song above is NOT stored on the Chordie server. The original song is hosted at www.guitaretab.com. Chordie works as a search engine and provides on-the-fly formatting. Chordie does not index songs against artists'/composers' will. To remove this song please click here.

This song is displayed as text-only. Transposing and tuning is only available for chordpro-songs.
Rate #1 of 4 versions

Jango Player

Login - add to songbook

SHARE PAGE  




You need to log in to post comments