Guitar Tabs, Chords and Lyrics
Server problems seems to be fixed. Chordie has been experiencing problems with songs disappearing. These issues now seems to be fixed, but still verifying the fix. If you find anything strange, please email admin@chordie.com.


Empty  The Cranberries

This is the right way to play this song according with the live version performed
on the DVD "The Cranberries: Live In London"
enjoy this powerfull song! n_n
Chords:
A5 xx220x or 577x00
[Abm]A [466444]002220
Am x02210
C 01023x
G 320000
Em 022000
 
 E|-------------------------------------|
 B|------0------0------0------0---------|
 G|----9------8------6------6-----------| (x2)
 D|--7------6------7------7-------------|
 A|-------------------------------------|
 E|-------------------------------------|
 E|-------------------------------------------------------|
 B|------0--0--------0--0---------0--0--------0--0--------|
 G|----9--9--9-----8--8--8------6--6--6-----6--6--6-------| (x2)
 D|--7-----------6------------7-----------7---------------|
 A|-------------------------------------------------------|
 E|-------------------------------------------------------|

[A5] [Abm] [A] [A]  
[A5] [Abm] [A] [A]  
[A5] Something ha[Abm]s left my life,
And I d[A]on't know where it went to, ah, ha, ha. [A5]
Somebody caus[Abm]ed me strife, And it's n[A]ot what I was seeking.
Didn't you s[A5]ee me, didn't you h[Abm]ear me?
Didn't you s[A]ee me standing there, ah, ha, ha? [A5]
Why did you turn [Abm]out the lights?
Did you know[A] that I was sleeping?
[Am] Say a pra[C]yer for me, [G]eh
Help me to fe[Em]el the strenght, I di[Am]d.
My iden[C]tity, has it been [G]taken?
Is my heart br[Em]eakin'?
on m[Am]e
All my pl[C]ans fell thought my h[G]ands,
They fell thought my h[Em]ands
On m[Am]e
All my dr[C]eams it suddenly se[G]ems,
It suddenly se[Em]ems,
Empty e[Am]h eh- [C]eh eh- [G]eh eh- [Em]eh eh
Empty e[Am]h eh- [C]eh eh- [G]eh eh- [Em]eh eh
 
 E|------------------------|
 B|-10-13--12-12----13--10-|
 G|------------------------|
 D|------------------------|
 A|------------------------|
 E|------------------------| x3
 E|----------------------|
 B|-10-12-8----8-10------|
 G|-----------------9----|
 D|----------------------|
 A|----------------------|
 E|----------------------| 

(repeat this part while acoustic guitar is playing -Am C G Em-)
Empty e[Am]h eh- [C]eh eh- [G]eh eh- [Em]eh eh
Empty e[Am]h eh- [C]eh eh- [G]eh eh- [Em]eh eh
 
 E|---10-12-10-----------10-12-10----------10-12-10------------------------|
 B|-13---------13-12--13---------13-12--13---------13-12----13-10--10-12-8-|
 G|------------------------------------------------------------------------|
 D|------------------------------------------------------------------------|
 A|------------------------------------------------------------------------|
 E|------------------------------------------------------------------------|

x2
Empty e[Am]h eh- [C]eh eh- [G]eh eh- [Em]eh eh
Empty e[Am]h eh- [C]eh eh- [G]eh eh- [Em]eh eh
questions, comments, suggestions or contact:
shout_sounds@hotmail.com ;)

Important: The song above is NOT stored on the Chordie server. The original song is hosted at www.guitaretab.com. Chordie works as a search engine and provides on-the-fly formatting. Chordie does not index songs against artists'/composers' will. To remove this song please click here.

Text color:
Chord color:
Chord grids: 
Font size:    
Page size: 

A A5 Abm Am C Em G
Rate #2 of 14 versions

Jango Player

Login - add to songbook

SHARE PAGE  




You need to log in to post comments