Guitar Tabs, Chords and Lyrics
Server problems seems to be fixed. Chordie has been experiencing problems with songs disappearing. These issues now seems to be fixed, but still verifying the fix. If you find anything strange, please email admin@chordie.com.


Shattered  The Cranberries

================================================================================
T H E C R A N B E R R I E S
[-] 
S H A T T E R E D
================================================================================
BURY THE HATCHET
(c) Island Records (1999)
http://www.cranberries.com/
Standard Tuning with Capo on 3rd Fret
[E] [A] [D] [G] [B] [E] 
Tempo = 62 BPM
Time Signature = 4/4
 
 -----------------------------

Transcribed by
PADDY MCMULLAN
pmtabs (@t) gmail [dot] com
Version 1.0
6th October 2011
 
 -----------------------

Tablature Symbols Used:
( ) - Ghost Note/Tied Note/Implied Note
0 h 2 - Hammer-on
2 p 0 - Pull-off
(3/5) - Legato Slide
^ - Down stroke (strum from low to high strings)
v - Up stroke (strum from high to low strings)
 
 -----------------------

Song Notes:
 
 -----------------------

All notes are relative to the capo for guitar 1. That is, an open string is in
fact the third fret of the guitar. The same applies to the chord diagrams below
- the A position is in reality the C position (3rd fret).
 
 -----------------------

Chords Used:
 
 -----------------------

[Am7] [F7M] [C7M] [G6add11]  
 
 E||----3----||----0----||----0----||----0----||
 B||----1----||----1----||----1----||----1----||
 G||----2----||----2----||----0----||----0----||
 D||----2----||----3----||----2----||----0----||
 A||----0----||----0----||----2----||----2----||
 E||---------||---------||----0----||----3----||

[Am] [Dm7] [Am7] [(2)] [Am7] [(3)]  
 
 ||----0----||----1----||----3----||----0----||
 ||----1----||----1----||----1----||----1----||
 ||----2----||----2----||----0----||----0----||
 ||----2----||----0----||----2----||----2----||
 ||----0----||----0----||----0----||----0----||
 ||---------||---------||---------||---------||

================================================================================
Intro/Verse 1: [ 00:00 - 00:46 ]
================================================================================
 
 --------------

Strum pattern:
 
 --------------

This strum pattern is maintained for the entire song
[Am7] [F7M] [CM7] [G6add11] 
 
 ||--3-3-3-3--3-3-0-0-0-0-0--0-0-0-|--0-0-0-0--0-0-0-0-0-0-0--0-0-0-| |
 ||--1-1-1-1--1-1-1-1-1-1-1--1-1-1-|--1-1-1-1--1-1-1-1-1-1-1--1-1-1-| |
 ||--2-2-2-2--2-2-2-2-2-2-2--2-2-0-|--0-0-0-0--0-0-0-0-0-0-0--0-0-0-|*|
 ||--2-2-2-2--2-2-0-3-3-3-3--3-3-0-|--2-2-2-2--2-2-0-0-0-0-0--0-0-0-|*|
 ||--0-0-0-0--0-0-0-0-0-0-0--0-0---|--2-2-2-2--2-2---2-2-2-2--2-2-0-| |
 ||--------------------------------|--0-0-0-0--0-0---3-3-3-3--3-3---| |

^ v ^ v v ^ v ^ v ^ v v ^ v ^ v ^ v v ^ v ^ v ^ v v ^ v
[Am7] [FM7] 
I?m trying to control myself
[CM7] [G6add11] 
So please don?t stand in my way
[Am7] [FM7] 
I?ve waited for the longest time
[CM7] [G6add11] 
This is what I wanted in my way
[Am7] [FM7] 
Move over, move over
[CM7] [G6add11] 
There?s a climax coming my way
[Am7] [FM7] 
Move over, move over
[CM7] [G6add11] 
There?s a climax coming in my way
================================================================================
Chorus 1: [ 00:46 - 01:26]
================================================================================
[FM7] [Am] [FM7] 
I don?t like you, don?t compromise
[Dm7] [Am] 
Shattered by your weakness
[Dm7] [Am] 
Shattered by your smile
[FM7] [Am] [FM7] 
And I?m not very fond of you, and your lies
[Dm7] [Am] 
Shattered by your weakness
[Dm7] [Am] [AM7] [(2)] 
Shattered by your smile
================================================================================
Verse 2: [ 01:26 - 02:17]
================================================================================
 
 ----------

Lead Fill: Electric guitar with Ebow (Standard tuning)
 
 ----------

// Fade in \\
 
 ||---------------||------------------------------|--------------|
 ||---------------||------------------------------|--------------|
 ||--13-------- \ || -12------ \ 10----(10)h(12)p | (10)------ \ |
 ||---------------||------------------------------|--------------|
 ||---------------||------------------------------|--------------|
 ||---------------||------------------------------|--------------|

// Fade out \\
 
 |-------------------||
 |-------------------||
 | -8----------------||
 |-------------------||
 |-------------------||
 |-------------------||

The first bar overlaps with the last bar of the chorus
[Am7] [FM7] 
All the kids are going back to school
[CM7] [G6add11] 
The summer?s over it?s the golden rule
[Am7] [FM7] 
And now I?m coming out to play
[CM7] [G6add11] 
So please don?t stand in my way
[Am7] [FM7] 
And all the things that seemed once to be
[CM7] [G6add11] 
So important to me
[Am7 FM7] 
Seems so trivial now
[CM7] [G6add11] 
That I can see
[Am7] [FM7] 
Move over, move over
[CM7] [G6add11] 
There?s a climax coming my way
[Am7] [FM7] 
Move over, move over
[CM7] [G6add11] 
There?s a climax coming in my way
================================================================================
Chorus 2 & Outro: [ 02:17 - 03:42 ]
================================================================================
[FM7] [Am] [FM7] 
I don?t like you, don?t compromise
[Dm7] [Am] 
Shattered by your weakness
[Dm7] [Am] 
Shattered by your smile
[FM7] [Am] [FM7] 
And I?m not very fond of you, and your lies
[Dm7] [Am] 
Shattered by your weakness
[Dm7] [Am] 
Shattered by your smile
[Dm7] [Am] 
Shattered by your weakness
[Dm7] [Am] 
Shattered by your smile
[Dm7] [Am] 
Shattered by your weakness
[Dm7] [Am] 
Shattered by your smile
[Dm7] [Am] 
Shattered by your weakness
[Dm7] [Am] [Am] [Am7] [(3)] 
Shattered by your smile
[FM7] [CM7] [G6add11] 
Please don't stand in my way
[Am7] [FM7] 
[CM7] [G6add11] 
Strum the final [G6add11] once and hold the chord
 
 ----------

Lead Fill:
 
 ----------

// Fade in \\ *Feedback* // Fade out \\
 
 ||-------------------||--------------------| |----------| |-------------------||
 ||--R----------------||----------(8)-------| |--(8)-----| |--(8)----R- -||
 ||--E- -5--------||--(5)-----(5)-------|2|--(5)-----|4|--(5)----E- -||
 ||--S- ----------||--------------------|/|----------|/|---------S- -||
 ||--T- ----------||--------------------|4|----------|4|---------T- -||
 ||-------------------||--------------------| |----------| |-------------------||

This fill enters immediately after the last vocal line of the previous chorus
================================================================================
[End]================================================================================

Important: The song above is NOT stored on the Chordie server. The original song is hosted at www.guitaretab.com. Chordie works as a search engine and provides on-the-fly formatting. Chordie does not index songs against artists'/composers' will. To remove this song please click here.

Text color:
Chord color:
Chord grids: 
Font size:    
Page size: 

A Am7 Am Am7 B Cm7 D Dm7 E Fm7 G
Rate #1 of 7 versions

Jango Player

Login - add to songbook

SHARE PAGE  



You need to log in to post comments