Guitar Tabs, Chords and Lyrics
Server problems seems to be fixed. Chordie has been experiencing problems with songs disappearing. These issues now seems to be fixed, but still verifying the fix. If you find anything strange, please email admin@chordie.com.


Dying in the Sun  The Cranberries

The Cranberries - Bury The Hatchet (1999) - Dying in the Sun (piano on guitar)
Contact: birdie-brain@hotmail.com
[F] [1] [3] [3] [2] [1] [1]  
Em 0 1 1 0 0 0
[G] [3] [5] [5] [4] [3] [3]  
C x 3 2 0 1 0
Cadd9 x 3 2 0 3 3
-- Standard Tuning --
[F] [Em] [F] [G] 
 
 E|---3------1---------0----------------------3-----1------0-------------|
 B|--------1----------------3-----0---1-----------1-----------3-----3----|
 G|------2---------------------0----------0-----2----------------4-------|
 D|---3---------------------2-----------------3---------------5----------|
 A|----------------------------------------------------------------------|
 E|----------------------------------------------------------------------|

[F] [Em] [F] [G] 
 
 E|--5-------------------7------------------------------------------------|
 B|----------8-------6-----------8--------------1--3--------3-------------|
 G|--------5--------------------------9------2-----------4----------------|
 D|-----7----------------------9----------3-----------5-------------------|
 A|--8-------------------7--10--------------------------------------------|
 E|-----------------------------------------------------------------------|

[F] [Em] [F] 
 
 E|--5-------7--------8-----7-----------------5--------------------3---3--|
 B|------------------------------------8----------------6-----------------|
 G|------5-------------------------------------------5--------------------|
 D|----7----------------------------9-------------7-----------------------|
 A|--8----------------------7---10------------8---------------------------|
 E|-----------------------------------------------------------------------|

[G] [F] [Em] 
 
 E|------------------------5--------7----------8----------7---------------|
 B|--------3--5--6--5--3--------------------------------------------8-----|
 G|-----4------------------------5----------------------------------------|
 D|--5------------------------7-----------------------------------9-------|
 A|------------------------8------------------------------7---10----------|
 E|-----------------------------------------------------------------------|

[F] [G] [F] 
 
 E|--5----------------0--0---------------------------1--------------1-----|
 B|----------6---------------------3--5--6--5--3--5---------1--3--------3-|
 G|--------5--------------------4------------------------2----------------|
 D|-----7--------------------5-----------------------3--------------------|
 A|--8--------------------------------------------------------------------|
 E|-----------------------------------------------------------------------|

[C] [F] [G] 
 
 E|--0---------------------1--------0------1-------------------------------|
 B|--------0--1------------------1---------------------3--5--6--5--3-------|
 G|----0--------------0-------2--------------------4-----------------------|
 D|--2---------------------3--------------------5--------------------------|
 A|------------------------------------------------------------------------|
 E|------------------------------------------------------------------------|

[F] [Em]  
 
 E|--5------------------------7---------------------------------------------|
 B|------------8--------6--------------------8----------------9-------------|
 G|---------5---------------------------------------------------------------|
 D|------7------------------------------9-----------------------------------|
 A|--8------------------------7----10---------------------------------------|
 E|-------------------------------------------------------------------------|

[F] [G]  
 
 E|------------------------------------10----10----12----10----12------------|
 B|----------1---3-----------------------------------------------------------|
 G|-----2----------------4----7----------------------------------------------|
 D|--3---------------5-------------------------------------------------------|
 A|--------------------------------------------------------------------------|
 E|--------------------------------------------------------------------------|

[F] [Em]  
 
 E|--8--------8----8--7--8--10----10---------10----10----12----10----12------|
 B|--------------------------------------------------------------------------|
 G|--------------------------------------------------------------------------|
 D|--------------------------------------------------------------------------|
 A|--------------------------------------------------------------------------|
 E|--------------------------------------------------------------------------|

[F] [G]  
 
 E|--8-------8----8----8----7-----------7----7--8--7--8----5------5--5---5--7-|
 B|--------------------------------------------------------------------8------|
 G|---------------------------------------------------------------------------|
 D|---------------------------------------------------------------------------|
 A|---------------------------------------------------------------------------|
 E|---------------------------------------------------------------------------|

[Em] [F] [G] 
 
 E|--7----7---7--8--7--8----5--------5----5----------------------------------|
 B|---------------------------------------------------------3--5--6--5--3----|
 G|---------------------------------------------8---------4------------------|
 D|----------------------------------------------------5---------------------|
 A---------------------------------------------------------------------------|
 E|--------------------------------------------------------------------------|

[F] [C] [F] [G] 
 
 E|----------5-------------0--3--0----------5------5---------------3---------|
 B|-------6-----6-------1----------------6------6-----6-----4----4-----------|
 G|----5-------------0----------------5-------------------5---5--------------|
 D|--3------------------------------3----------------------------------------|
 A|--------------------------------------------------------------------------|
 E|--------------------------------------------------------------------------|

[F] [Em] [F] 
 
 E|--5-------7--------8----10------------8--------7----10----------8-------7-|
 B|--------------------------------------------------------------------------|
 G|-------5----------------------------------------------------7-------------|
 D|-----7----------------------------9-----------------------7---------------|
 A|--8----------------------7----10----------------------8-------------------|
 E|--------------------------------------------------------------------------|

G Cadd9 F G^5
 
 E|--3--------------------------------------3--------1--------0--------------|
 B|-------3--6--------5----3----0--1--------------1----------------3---------|
 G|-----4--------------------0----------0------2-------------------0---------|
 D|--5---------------------2----------------3--------------------------------|
 A|--------------------------------------------------------------------------|
 E|--------------------------------------------------------------------------|

-- End of Tablature --

Important: The song above is NOT stored on the Chordie server. The original song is hosted at www.guitaretab.com. Chordie works as a search engine and provides on-the-fly formatting. Chordie does not index songs against artists'/composers' will. To remove this song please click here.

Text color:
Chord color:
Chord grids: 
Font size:    
Page size: 

C Em F G
Rate #2 of 5 versions

Login - add to songbook

SHARE PAGE  




You need to log in to post comments