Guitar Tabs, Chords and Lyrics
Major upgrade!! After one year development the new version of Chordie is now online! Please give feedback.


Hide  Creed

Intro
 
 e-----------------------|Mark |-(3)~~--------|
 b-----------------------|does some |--------(3)~~-|
 g-----------------------|harmonics |--------------|
 d---0h1-0---0h1--0--1~~-|after this |--------------|
 a-1-------1--------1----|then repeats |--------------|
 E-----------------------|it:: |--------------|

Verse
[Gm7] [F] [A#5] [A#]  
 
 e-----------------------------------111-11-|
 b------------------------3----------111-11-|
 g-------3--------------3---3-----3--333-33-|
 d-----3----3--------3--------3---3--333-33-|
 a---5--------5---3---------------1--111-11-|
 E-3----------------------------------------|

Chorus
A#-F this two chords and then the verse figure
Note: the intro is also used as a bridge

Important: The song above is NOT stored on the Chordie server. The original song is hosted at www.guitaretab.com. Chordie works as a search engine and provides on-the-fly formatting. Chordie does not index songs against artists'/composers' will. To remove this song please click here.

Text color:
Chord color:
Chord grids: 
Font size:    
Page size: 

A# A#5 F Gm7
Rate #7 of 7 versions

Jango Player

Login - add to songbook

SHARE PAGE  




You need to log in to post comments