Guitar Tabs, Chords and Lyrics
Server problems seems to be fixed. Chordie has been experiencing problems with songs disappearing. These issues now seems to be fixed, but still verifying the fix. If you find anything strange, please email admin@chordie.com.


Torn  Creed

Gtr I (D A D G B E) - 'clean'
Gtr II (D A D G B E) - 'distortion'
Gtr III (D A D G B E) - 'distortion 2'
Gtr IV (E A D G B E) - 'clean 2'
intro
Half-Time Feel H=74
[4/4] Gtr I
~~~~~~~~ ~~~~~~~~
H E E E E +Q Q E E E E E E Q E E E E +Q Q E E E E
 
 |--------------|---------------0-||-----------------|---------------0--||
 |------------6-|-(6)-------------||o-6------------6-|-(6)-------------o||
 |------7p5-----|---------7p5-----||----5----7p5-----|---------7p5------||
 |-0--------0---|------0------0---||------0------0---|------0------0----||
 |--------------|-----------------||o----------------|-----------------o||
 |--------------|-----------------||-----------------|------------------||

~~~~~~~~ ~~~~~~~~
E E Q E E E E +E E E E E E E E Q E E E E E E +E E E E E E E E
 
 |----------------|-------------------|------(0)---------|-----------------0-|
 |-6------------6-|-(6)-6---6s8-8-8-8-|----------------6-|-(6)-6-------------|
 |---5----7p5---5-|-(5)-5---5s7-7-7-7-|----------7p5---5-|-(5)-5---5-7p5-----|
 |-----0------0---|-------0-----------|-0----------------|-------0-0---------|
 |----------------|-------0-----------|-0--0---------0---|-------0-0-----0---|
 |----------------|-------------------|------------------|-------------------|

[E] [E] [E] [E] [E] [E] [E] [E] [+E] [E] [E] [E] [E] [E] [E] [E]  
 
 ||------------------|-----------------0--||
 ||o-6-------------6-|-(6)-6-------------o||
 ||----5---5-7p5---5-|-(5)-5---5-7p5------||
 ||----------------0-|-(0)----------------||
 ||o-----0-------0---|-------0-------0---o||
 ||------------------|--------------------||

[E] [E] [E] [E] [E] [E] [E] [E] [+E] [E] [E] [E] [E] [E] [E] [E]  
 
 |-----------------|--------------------||
 |-6-------------6-|-(6)-6-6-6s8-8-8-8--||
 |---5---5-7p5---5-|-(5)-5-5-5s7-7-7-7--||
 |-----0-------0-0-|-(0)-----------0-0--||
 |-----0-------0---|---------------0----||
 |-----------------|--------------------||

verse
Q E E E E E E +E E E E E E E E E E E E E E E E +E E E E E E E E
 
 ||-----------------|-----------------0-|-----------------|-----------------0--|
 ||o--------------6-|-(6)-6---6---------|-6-------------6-|-(6)-6---6----------|
 ||-------7-7p5---5-|-(5)-5---5-7p5-----|---5---5-7p5---5-|-(5)-5---5-7p5------|
 ||--0--0-0-0-----0-|-(0)---0---0---0---|-----------------|-------0------------|
 ||o-0--0---0---0---|-----------0---0---|-----0-----------|-------0-------0----|
 ||-----------------|-------------------|-------------0---|---------------0----|

[E] [E] [E] [E] [E] [E] [E] [E] [+E] [E] [E] [E] [E] [E] [E] [E] [E] [E] [E] [E] [E] [E] [E] [E] [+E] [E] [E] [E] [E] [E] [E] [E]  
 
 |-----------------|-----------------0-|-----------------|-------------------|
 |-6-------------6-|-(6)-6---6---------|-6-------------6-|-(6)-6---6s8-8-8-8-|
 |---5---5-7p5---5-|-(5)-5---5-7p5-----|---5---5-7p5---5-|-(5)-5-5-5s7-7-7-7-|
 |-----------------|-------0-----------|-----0---0-------|-----0-0-------0---|
 |-----0-----------|-------0-------0---|---------0---0---|-------0-----------|
 |-------------0---|---------------0---|-------------0---|-------------------|

Q E E E E E E +E E E E E E E E E E E E E E E E +E E E E E E E E
 
 |----------------|-----------------0-|-----------------|-----------------0-|
 |--------------6-|-(6)-6---6---------|-6-------------6-|-(6)-6---6---------|
 |------7-7p5---5-|-(5)-5---5-7p5-----|---5---5-7p5---5-|-(5)-5---5-7p5-----|
 |-0--0-0-0-----0-|-(0)---0---0---0---|-----------------|-------0-----------|
 |-0--0---0---0---|-----------0---0---|-----0-----------|-------0-------0---|
 |----------------|-------------------|-------------0---|---------------0---|

[E] [E] [E] [E] [E] [E] [E] [E] [+E] [E] [E] [E] [E] [E] [E] [E] [E] [E] [E] [E] [E] [E] [E] [E] [+E] [E] [E] [E] [E] [E] [E] [E]  
 
 |-----------------|-----------------0-|-----------------|-------------------||
 |-6-------------6-|-(6)-6---6---------|-6-------------6-|-(6)-6---6s8-8-8-8-||
 |---5---5-7p5---5-|-(5)-5---5-7p5-----|---5---5-7p5---5-|-(5)-5-5-5s7-7-7-7-||
 |-----------------|-------0-----------|-----0---0-------|-----0-0-------0---||
 |-----0-----------|-------0-------0---|---------0---0---|-------0-----------||
 |-------------0---|---------------0---|-------------0---|-------------------||

prechorus
Gtr II
PM--|
H Q. E E E Q E E E E H Q. E +E E E E E Q.
 
 |-------------|----------------|-------------|------------------|
 |-------------|----------------|-------------|------------------|
 |-5----5----5-|-5-5-5--5-5-5---|-5----5----5-|-(5)-5-------5----|
 |-3----3----3-|-3-3-3--3-3-3-0-|-5----5----5-|-(5)-5-0-0-0-3----|
 |-3----3----3-|-3-3-3--3-3-3-0-|-3----3----3-|-(3)-3-0-0-0-3----|
 |-3----3----3-|-3-3-3--3-3-3-0-|-------------|-------0-0-0-3----|

PM| PM PM|
Q E E E E E E +E E E E E E E E Q E E E E E E E E E E E E E E
 
 |----------------|-------------------|----------------|-----------------|
 |----------------|-------------------|----------------|-----------------|
 |----------------|-------------------|----------------|-----------------|
 |-0--0-0-3p0-0-0-|-(0)-0-------------|-0--0-0-3---0-0-|-----------------|
 |-0--0-0-3p0-0-0-|-(0)-0-3-4-5-0-3-4-|-0--0-0-3p0-0-0-|-3-4-5-0-5-4-3-0-|
 |-0--0-0-3p0-0-0-|-(0)-0-------------|-0--0-0-3p0-0-0-|---------------0-|

PM--|
H Q. E E E Q E E E E H Q. E +E E E E E Q.
 
 |-------------|----------------|-------------|------------------|
 |-------------|----------------|-------------|------------------|
 |-5----5----5-|-5-5-5--5-5-5---|-5----5----5-|-(5)-5-------5----|
 |-3----3----3-|-3-3-3--3-3-3-0-|-5----5----5-|-(5)-5-0-0-0-3----|
 |-3----3----3-|-3-3-3--3-3-3-0-|-3----3----3-|-(3)-3-0-0-0-3----|
 |-3----3----3-|-3-3-3--3-3-3-0-|-------------|-------0-0-0-3----|

PM| PM PM|
Q E E E E E E +E E E E E E E E Q E E E E E E E E E E E E E E
 
 |----------------|-------------------|----------------|-----------------||
 |----------------|-------------------|----------------|-----------------||
 |----------------|-------------------|----------------|-----------------||
 |-0--0-0-3p0-0-0-|-(0)-0-------------|-0--0-0-3---0-0-|-----------------||
 |-0--0-0-3p0-0-0-|-(0)-0-3-4-5-0-3-4-|-0--0-0-3p0-0-0-|-3-4-5-0-5-4-3-0-||
 |-0--0-0-3p0-0-0-|-(0)-0-------------|-0--0-0-3p0-0-0-|---------------0-||

chorus
$
Q E E Q E E E E Q E E E E Q E E Q E E E E Q E E E E
 
 |---------------|----------------|---------------|----------------|
 |---------------|----------------|---------------|----------------|
 |-5--5-5-5--5-5-|---5-5--5-5-5---|-7--7-7-7--7-7-|---7-7--7-7-7---|
 |-3--3-3-3--3-3-|-0-5-5--5-5-5-0-|-5--5-5-5--5-5-|-0-7-7--7-7-7-0-|
 |-3--3-3-3--3-3-|-0-3-3--3-3-3-0-|-5--5-5-5--5-5-|-0-5-5--5-5-5-0-|
 |-3--3-3-3--3-3-|-0------------0-|-5--5-5-5--5-5-|-0------------0-|

Q E E Q E E E E Q E E E E
 
 |---------------------|---------------------|
 |---------------------|---------------------|
 |-10--10-10-10--10-10-|---10-10--10-10-10---|
 |--8---8--8--8---8--8-|---10-10--10-10-10---|
 |--8---8--8--8---8--8-|-0--8--8---8--8--8-0-|
 |--8---8--8--8---8--8-|-0-----------------0-|

Q E E Q E E E E E E E E a +E +E
 
 |---------------|--------------------------|
 |---------------|--------------------------|
 |-9--9-9-9------|--------------------------|
 |-7--7-7-7------|-7p5----------------------|
 |-7--7-7-7--0-0-|-----7-5S3----------------|
 |-7--7-7-7--0-0-|-----------3-5b6==(5)r(5)-|

Q E E Q E E E E Q E E E E Q E E Q E E E E Q E E E E
 
 |---------------|----------------|---------------|----------------|
 |---------------|----------------|---------------|----------------|
 |-5--5-5-5--5-5-|---5-5--5-5-5---|-7--7-7-7--7-7-|---7-7--7-7-7---|
 |-3--3-3-3--3-3-|-0-5-5--5-5-5-0-|-5--5-5-5--5-5-|-0-7-7--7-7-7-0-|
 |-3--3-3-3--3-3-|-0-3-3--3-3-3-0-|-5--5-5-5--5-5-|-0-5-5--5-5-5-0-|
 |-3--3-3-3--3-3-|-0------------0-|-5--5-5-5--5-5-|-0------------0-|

Q E E Q E E E E Q E E E E
 
 |---------------------|---------------------|
 |---------------------|---------------------|
 |-10--10-10-10--10-10-|---10-10--10-10-10---|
 |--8---8--8--8---8--8-|---10-10--10-10-10---|
 |--8---8--8--8---8--8-|-0--8--8---8--8--8-0-|
 |--8---8--8--8---8--8-|-0-----------------0-|

To Coda
Q E E Q E E E E E E E E a +E +E
 
 |---------------|-----------------------------|
 |---------------|-----------------------------|
 |-9--9-9-9------|-----------------------------|
 |-7--7-7-7------|-7p5-------------------------|
 |-7--7-7-7--0-0-|-----7-5S3-------------------|
 |-7--7-7-7--0-0-|-----------3-5b6==(5)r(5)----|

1.
Gtr I
Q E E E E E E +E E E E E E E E E E E E E E E E +E E E E E E E E
 
 |----------------|-----------------0-|-------------------|-----------------0-|
 |--------------6-|-(6)-6---6---------|--6--------------6-|-(6)-6---6---------|
 |------7-7p5---5-|-(5)-5---5-7p5-----|-----5---5-7p5---5-|-(5)-5---5-7p5-----|
 |-0--0-0-0-----0-|-(0)---0---0---0---|-------------------|-------0-----------|
 |-0--0---0---0---|-----------0---0---|-------0-----------|-------0-------0---|
 |----------------|-------------------|---------------0---|---------------0---|

|
| Gtr II
| W +W +W +W
 
 |----------------|-------------------|-------------------|-------------------|
 |----------------|-------------------|-------------------|-------------------|
 |----------------|-------------------|-------------------|-------------------|
 |-0--------------|-(0)---------------|-(0)---------------|-(0)---------------|
 |----------------|-------------------|-------------------|-------------------|
 |-0--------------|-(0)---------------|-(0)---------------|-(0)---------------|

[E] [E] [E] [E] [E] [E] [E] [E] [+E] [E] [E] [E] [E] [E] [E] [E]  
 
 |-------------------|-----------------0-|
 |--6--------------6-|-(6)-6---6---------|
 |-----5---5-7p5---5-|-(5)-5---5-7p5-----|
 |-------------------|-------0-----------|
 |-------0-----------|-------0-------0---|
 |---------------0---|---------------0---|

|
| +W +W
 
 |-------------------|-------------------|
 |-------------------|-------------------|
 |-------------------|-------------------|
 |-(0)---------------|-(0)---------------|
 |-------------------|-------------------|
 |-(0)---------------|-(0)---------------|

[E] [E] [E] [E] [E] [E] [E] [E] [+E] [E] [E] [E] [E] [E] [E] [E]  
 
 |-------------------|--------------------||
 |--6--------------6-|-(6)-6---6s8-8-8-8-o||
 |-----5---5-7p5---5-|-(5)-5-5-5s7-7-7-7--||
 |-------0---0-------|-----0-0-------0----||
 |-----------0---0---|-------0-----------o||
 |---------------0---|--------------------||

|
| +W +W
 
 |-------------------|--------------------||
 |-------------------|-------------------o||
 |-------------------|--------------------||
 |-(0)---------------|-(0)----------------||
 |-------------------|-------------------o||
 |-(0)---------------|-(0)----------------||

interlude
2.
Gtr II[2/4]
 
 PM--------------------| PM| PM----| ~

E E E E E E E E E E E E E E E E E E E E E E Q E E E E
 
 |-------------------|-----------------|----------------|----------|
 |-------------------|-----------------|----------------|----------|
 |-------------------|-----------------|----------------|----------|
 |-------------------|-----------------|----------------|----------|
 |-------------------|-----6-6-----6-6-|-------------4--|-5-4---0--|
 |-0-0-10-10-9-9-0-0-|-6-7-----0-0-----|-7-7-0-0-4-5----|-----5-0--|

[4/4]  
 
 PM----| PM PM----| PM----|

[E] [E] [E] [E] [E] [E] [E] [E] [E] [E] [E] [E] [E] [E] [E] [E] [E] [E] [E] [E] [E] [E] [E] [E] [E] [E] [E] [E] [E] [E] [E] [E]  
 
 |-----------------|-----------------|-----------------|-----------------|
 |-----------------|-----------------|-----------------|-----------------|
 |-----------------|-----------------|-----------------|-----------------|
 |---------3-3-3---|---------3-3-3-0-|---------2-2-2---|---------2-2-2-0-|
 |-----------------|-----------------|-2---------------|-----------------|
 |-3-3-3-3-------3-|-3-3-3-3---------|-2-2-2-2-------2-|-2-2-2-2---------|

[2/4]  
 
 PM--------------------| PM| PM----| ~

E E E E E E E E E E E E E E E E E E E E E E Q E E E E
 
 |-------------------|-----------------|----------------|----------|
 |-------------------|-----------------|----------------|----------|
 |-------------------|-----------------|----------------|----------|
 |-------------------|-----------------|----------------|----------|
 |-------------------|-----6-6-----6-6-|-------------4--|-5-4---0--|
 |-0-0-10-10-9-9-0-0-|-6-7-----0-0-----|-7-7-0-0-4-5----|-----5-0--|

bridge
[4/4] Q Q Q. E +E E E E E Q. Q E E Q. E +E E E E E E Q
 
 |--------------|------------------|---------------|------------------|
 |--------------|------------------|---------------|------------------|
 |-5--5--5----5-|-(5)-5-------8\---|-4--4-4-4----4-|-(4)-4-------5-4--|
 |-3--3--3----3-|-(3)-3-0-0-0-5\---|-2--2-2-2----2-|-(2)-2-0-0-0-3-2--|
 |-3--3--3----3-|-(3)-3-0-0-0-5\---|-2--2-2-2----2-|-(2)-2-0-0-0-3-2--|
 |-3--3--3----3-|-(3)-3-0-0-0-5\---|-2--2-2-2----2-|-(2)-2-0-0-0-3-2--|

Q Q Q Q E E Q E E Q Q Q E E Q [2/4] E E E E
 
 |--------------|---------------|--------------|----------|
 |--------------|---------------|--------------|----------|
 |--------------|---------------|--------------|----------|
 |-0--10--9--0--|-6-7-8--0-0-8--|-7--0--4-5-6--|-7-6-5-0--|
 |-0--10--9--0--|-6-7-6--0-0-6--|-7--0--4-5-4--|-5-4-5-0--|
 |-0--10--9--0--|-6-7----0-0----|-7--0--4-5----|-----5-0--|

[4/4] Q Q Q. E +E E E E E Q. Q E E Q. E +E E E E E E Q
 
 |--------------|------------------|---------------|------------------|
 |--------------|------------------|---------------|------------------|
 |-5--5--5----5-|-(5)-5-------8\---|-4--4-4-4----4-|-(4)-4-------5-4--|
 |-3--3--3----3-|-(3)-3-0-0-0-5\---|-2--2-2-2----2-|-(2)-2-0-0-0-3-2--|
 |-3--3--3----3-|-(3)-3-0-0-0-5\---|-2--2-2-2----2-|-(2)-2-0-0-0-3-2--|
 |-3--3--3----3-|-(3)-3-0-0-0-5\---|-2--2-2-2----2-|-(2)-2-0-0-0-3-2--|

Q Q Q Q E E Q E E Q Q Q E E Q [2/4] E E E E
 
 |--------------|---------------|--------------|----------|
 |--------------|---------------|--------------|----------|
 |--------------|---------------|--------------|----------|
 |-0--10--9--0--|-6-7-8--0-0-8--|-7--0--4-5-6--|-7-6-5-0--|
 |-0--10--9--0--|-6-7-6--0-0-6--|-7--0--4-5-4--|-5-4-5-0--|
 |-0--10--9--0--|-6-7----0-0----|-7--0--4-5----|-----5-0--|

[4/4] Q Q Q. E +E E E E E Q. Q E E Q. E +E E E E E E Q
 
 |--------------|------------------|---------------|------------------|
 |--------------|------------------|---------------|------------------|
 |-5--5--5----5-|-(5)-5-------8\---|-4--4-4-4----4-|-(4)-4-------5-4--|
 |-3--3--3----3-|-(3)-3-0-0-0-5\---|-2--2-2-2----2-|-(2)-2-0-0-0-3-2--|
 |-3--3--3----3-|-(3)-3-0-0-0-5\---|-2--2-2-2----2-|-(2)-2-0-0-0-3-2--|
 |-3--3--3----3-|-(3)-3-0-0-0-5\---|-2--2-2-2----2-|-(2)-2-0-0-0-3-2--|

Q Q Q Q E E Q E E Q Q Q E E Q [2/4] E E E E
 
 |--------------|---------------|--------------|----------|
 |--------------|---------------|--------------|----------|
 |--------------|---------------|--------------|----------|
 |-0--10--9--0--|-6-7-8--0-0-8--|-7--0--4-5-6--|-7-6-5-0--|
 |-0--10--9--0--|-6-7-6--0-0-6--|-7--0--4-5-4--|-5-4-5-0--|
 |-0--10--9--0--|-6-7----0-0----|-7--0--4-5----|-----5-0--|

[4/4] Q E E Q E E +E E E E E Q. Q E E Q E E +E E E E Q E E
 
 |---------------|------------------|---------------|------------------|
 |---------------|------------------|---------------|------------------|
 |-5--5-5-5--5-5-|-(5)-5-------8\---|-4--4-4-4--4-4-|-(4)-4-4-4-4--4-4-|
 |-3--3-3-3--3-3-|-(3)-3-0-0-0-5\---|-2--2-2-2--2-2-|-(2)-2-0-0-0--0-0-|
 |-3--3-3-3--3-3-|-(3)-3-0-0-0-5\---|-2--2-2-2--2-2-|-(2)-2-0-0-0--0-0-|
 |-3--3-3-3--3-3-|-(3)-3-0-0-0-5\---|-2--2-2-2--2-2-|-(2)-2-0-0-0--0-0-|

[D5]Gtr III
W +W +W +W
| | | |
[/] [/] [/] [/] 
Gtr I
Q E E E E E E +E E E E E E E E E E E E E E E E +E E E E E E E E
 
 |------------------|-----------------0-|-------------------|-----------------0-|
 |----------------6-|-(6)-6---6---------|--6--------------6-|-(6)-6---6---------|
 |--------7-7p5---5-|-(5)-5---5-7p5-----|-----5---5-7p5---5-|-(5)-5---5-7p5-----|
 |--0---0-0-0-----0-|-(0)---0---0---0---|-------------------|-------0-----------|
 |--0---0---0---0---|-----------0---0---|-------0-----------|-------0-------0---|
 |------------------|-------------------|---------------0---|---------------0---|

|
| Gtr II
| W +W +W +W
 
 |------------------|-------------------|-------------------|-------------------|
 |------------------|-------------------|-------------------|-------------------|
 |-(7)--------------|-(7)---------------|-(7)---------------|-(7)---------------|
 |-(7)--------------|-(7)---------------|-(7)---------------|-(7)---------------|
 |-(5)--------------|-(5)---------------|-(5)---------------|-(5)---------------|
 |------------------|-------------------|-------------------|-------------------|

+W +W
| |
[/] [/]  
[E] [E] [E] [E] [E] [E] [E] [E] [+E] [E] [E] [E] [E] [E] [E] [E]  
 
 |-------------------|-----------------0-|
 |--6--------------6-|-(6)-6---6---------|
 |-----5---5-7p5---5-|-(5)-5---5-7p5-----|
 |-------------------|-------0-----------|
 |-------0-----------|-------0-------0---|
 |---------------0---|---------------0---|

|
| +W +W
 
 |-------------------|-------------------|
 |-------------------|-------------------|
 |-(7)---------------|-(7)---------------|
 |-(7)---------------|-(7)---------------|
 |-(5)---------------|-(5)---------------|
 |-------------------|-------------------|

W W
[E] [E] [E] [E] [E] [E] [E] [E] [+E] [E] [E] [E] [E] [E] [E] [E]  
 
 |-------------------|-------------------|
 |--6--------------6-|-(6)-6---6s8-8-8-8-|
 |-----5---5-7p5---5-|-(5)-5-5-5s7-7-7-7-|
 |-------0---0-------|-----0-0-------0---|
 |-----------0---0---|-------0-----------|
 |---------------0---|-------------------|

|
| +W +Q Q Q E E
 
 |-------------------|-------------------|
 |-------------------|-------------------|
 |-(7)---------------|-(7)---7---7---7-7-|
 |-(7)---------------|-(7)---0---0---0-0-|
 |-(5)---------------|-(5)---------------|
 |-------------------|-------------------|

Q E E E E E E +E E E E E E E E E E E E E E E E +E E E E E E E E
 
 |------------------|-----------------0-|-------------------|-----------------0-|
 |----------------6-|-(6)-6---6---------|--6--------------6-|-(6)-6---6---------|
 |--------7-7p5---5-|-(5)-5---5-7p5-----|-----5---5-7p5---5-|-(5)-5---5-7p5-----|
 |--0---0-0-0-----0-|-(0)---0---0---0---|-------------------|-------0-----------|
 |--0---0---0---0---|-----------0---0---|-------0-----------|-------0-------0---|
 |------------------|-------------------|---------------0---|---------------0---|

|
| W +W +W +W
 
 |------------------|-------------------|-------------------|-------------------|
 |------------------|-------------------|-------------------|-------------------|
 |-(7)--------------|-(7)---------------|-(7)---------------|-(7)---------------|
 |-(0)--------------|-(0)---------------|-(0)---------------|-(0)---------------|
 |------------------|-------------------|-------------------|-------------------|
 |------------------|-------------------|-------------------|-------------------|

[E] [E] [E] [E] [E] [E] [E] [E] [+E] [E] [E] [E] [E] [E] [E] [E]  
 
 |-------------------|-----------------0-|
 |--6--------------6-|-(6)-6---6---------|
 |-----5---5-7p5---5-|-(5)-5---5-7p5-----|
 |-------------------|-------0-----------|
 |-------0-----------|-------0-------0---|
 |---------------0---|---------------0---|

|
| +W +W
 
 |-------------------|-------------------|
 |-------------------|-------------------|
 |-(7)---------------|-(7)---------------|
 |-(0)---------------|-(0)---------------|
 |-------------------|-------------------|
 |-------------------|-------------------|

[E] [E] [E] [E] [E] [E] [E] [E] [+E] [E] [E] [E] [E] [E] [E] [E]  
 
 |-------------------|-------------------||
 |--6--------------6-|-(6)-6---6s8-8-8-8-||
 |-----5---5-7p5---5-|-(5)-5-5-5s7-7-7-7-||
 |-------0---0-------|-----0-0-------0---||
 |-----------0---0---|-------0-----------||
 |---------------0---|-------------------||

|
| +W +W
 
 |-------------------|-------------------||
 |-------------------|-------------------||
 |-(7)---------------|-(7)---------------||
 |-(0)---------------|-(0)---------------||
 |-------------------|-------------------||
 |-------------------|-------------------||

Gtr I
Q E E Q E E E E Q E E E E Q E E Q E E E E Q E E E E
 
 |---------------|----------------|---------------|-----------------|
 |---------------|----------------|---------------|---5-5-----------|
 |-5--5-5-5--5-5-|-5-5-5--5-5-5S7-|-7--7-7-7--7-7-|-7-7-7--7-7-7-10-|
 |-3--3-3-3--3-3-|-x-5-5--5-5-----|-5--5-5-5--5-5-|-x-7-7--7-7-0--0-|
 |-3--3-3-3--3-3-|---3-3--3-3-----|-5--5-5-5--5-5-|---5-5--5-5-0--0-|
 |-3--3-3-3--3-3-|----------------|-5--5-5-5--5-5-|------------0--0-|

Q E E Q E E E E Q E E E E Q E E Q E E E E E E E E E E
 
 |---------------------|--------------------|---------------|-----------------|
 |---------------------|--------------------|---------------|-----------------|
 |-10--10-10-10--10-10-|---10-10--10-10-----|-9--9-9-9--9-9-|-9-9-9---7-7-7-5-|
 |--8---8--8--8---8--8-|-x-10-10--10-10-0-0-|-7--7-7-7--7-7-|-7-7-7-0-0-5-5-0-|
 |--8---8--8--8---8--8-|-x--8--8---8--8-0-0-|-7--7-7-7--7-7-|-7-7-7-0-0-5-5-0-|
 |--8---8--8--8---8--8-|-0--------------0-0-|-7--7-7-7--7-7-|-7-7-7-0-0-5-5-0-|

Q E E Q E E E E Q E E E E Q E E Q E E E E Q E E E E
 
 |---------------|----------------|---------------|-----------------|
 |---------------|----------------|---------------|---5-5-----------|
 |-5--5-5-5--5-5-|-5-5-5--5-5-5S7-|-7--7-7-7--7-7-|-7-7-7--7-7-7-10-|
 |-3--3-3-3--3-3-|-x-5-5--5-5-----|-5--5-5-5--5-5-|-x-7-7--7-7-0--0-|
 |-3--3-3-3--3-3-|---3-3--3-3-----|-5--5-5-5--5-5-|---5-5--5-5-0--0-|
 |-3--3-3-3--3-3-|----------------|-5--5-5-5--5-5-|------------0--0-|

Q E E Q E E E E Q E E E E
 
 |---------------------|--------------------|
 |---------------------|--------------------|
 |-10--10-10-10--10-10-|---10-10--10-10-----|
 |--8---8--8--8---8--8-|-x-10-10--10-10-0-0-|
 |--8---8--8--8---8--8-|-x--8--8---8--8-0-0-|
 |--8---8--8--8---8--8-|-0--------------0-0-|

D.S. al Coda
Gtr II
Q E E Q E E E E E E E E a +E +E
 
 |---------------|-------------------------------||
 |---------------|-------------------------------||
 |-9--9-9-9------|-------------------------------||
 |-7--7-7-7------|-7--5--------------------------||
 |-7--7-7-7------|-------7-5S3-------------------||
 |-7--7-7-7--0-0-|-0-(0)-------3-5b6==(5)r(5)----||

&
Q Q Q Q E E Q E E Q Q Q E E Q [2/4] E E E E
 
 |--------------|---------------|--------------|------------|
 |--------------|---------------|--------------|------------|
 |--------------|---------------|--------------|------------|
 |-0--10--9--0--|-6-7-8--0-0-8--|-7--0--4-5-6--|-7-6-5-0----|
 |-0--10--9--0--|-6-7-6--0-0-6--|-7--0--4-5-4--|-5-4-5-0----|
 |-0--10--9--0--|-6-7----0-0----|-7--0--4-5----|-----5-0----|

[4/4] Q E E Q E E +E E E E E Q. Q E E Q E E +E E E E Q E E
 
 |---------------|------------------|---------------|------------------||
 |---------------|------------------|---------------|------------------||
 |-5--5-5-5--5-5-|-(5)-5-------8\---|-4--4-4-4--4-4-|-(4)-4-4-4-4--4-4-||
 |-3--3-3-3--3-3-|-(3)-3-0-0-0-5\---|-2--2-2-2--2-2-|-(2)-2-0-0-0--0-0-||
 |-3--3-3-3--3-3-|-(3)-3-0-0-0-5\---|-2--2-2-2--2-2-|-(2)-2-0-0-0--0-0-||
 |-3--3-3-3--3-3-|-(3)-3-0-0-0-5\---|-2--2-2-2--2-2-|-(2)-2-0-0-0--0-0-||

outro
[D5]Gtr III
W +W +W +W
| | | |
[/] [/] [/] [/] 
Gtr I
H E E Q E E Q E E E E E E Q E E Q E E Q E E E E
 
 |--------------|----------------0-|-----------------|-----------------0-|
 |--------------|------------------|-----------------|-------------------|
 |------7p5-----|--7p=5----7p5-----|--7p5----7p5-----|--7p=5-----7p5-----|
 |-0--------0---|-------0------0---|------0------0---|-------0-------0---|
 |--------------|------------------|-----------------|-------------------|
 |--------------|------------------|-----------------|-------------------|

|
| Gtr IV
| H E E E E +Q Q E E E E E E Q E E E E +Q E E E E E E
 
 |--------------|----------------0-|-----------------|-----------------0-|
 |------------6-|-(6)--------------|--6------------6-|-(6)-----6---------|
 |------7p5-----|----------7p5-----|----5----7p5-----|-----------7p5-----|
 |-0--------0---|-------0------0---|------0------0---|-------0-------0---|
 |--------------|------------------|-----------------|-------------------|
 |--------------|------------------|-----------------|-------------------|

Gtr III
+E E H. +W +W +W
| | | | | |
[/] [/] [/] [/] [/] [/] 
Gtr II
W +W +W +Q H.
 
 |------------------|-------------------|-----------------|---------------------|
 |------------------|-------------------|-----------------|---------------------|
 |--7---------------|-(7)---------------|-(7)-------------|-(7)---7-------------|
 |--7---------------|-(7)---------------|-(7)-------------|-(7)---0-------------|
 |--5---------------|-(5)---------------|-(5)-------------|-(5)-----------------|
 |------------------|-------------------|-----------------|---------------------|

|
| Gtr I
| E E Q E E Q E E Q E E E E E E Q E E Q E E Q E E E E
 
 |------------------|-----------------0-|-----------------|------------------0--|
 |------------------|-------------------|-----------------|---------------------|
 |--7p5-----7p5-----|--7p=5-----7p5-----|--7p5----7p5-----|--7p=5------7p5------|
 |------0-------0---|-------0-------0---|------0------0---|-------0--------0----|
 |------------------|-------------------|-----------------|---------------------|
 |------------------|-------------------|-----------------|---------------------|

|
| Gtr IV
| E E Q E E E E +Q E E E E E E E E Q E E E E +Q E E E E E E
 
 |------------------|-----------------0-|-----------------|------------------0--|
 |--6-------------6-|-(6)-----6---------|--6------------6-|-(6)------6----------|
 |----5-----7p5-----|-----------7p5-----|----5----7p5-----|------------7p5------|
 |------0-------0---|-------0-------0---|------0------0---|-------0--------0----|
 |------------------|-------------------|-----------------|---------------------|
 |------------------|-------------------|-----------------|---------------------|

+W +W +W +W
| | | |
[/] [/] [/] [/] 
+W +W +W +W
 
 |-----------------|-------------------|-----------------|-------------------|
 |-----------------|-------------------|-----------------|-------------------|
 |-(7)-------------|-(7)---------------|-(7)-------------|-(7)---------------|
 |-(0)-------------|-(0)---------------|-(0)-------------|-(0)---------------|
 |-----------------|-------------------|-----------------|-------------------|
 |-----------------|-------------------|-----------------|-------------------|

|
| E E Q E E Q E E Q E E E E E E Q E E Q E E Q E E E E
 
 |-----------------|-----------------0-|-----------------|-----------------0-|
 |-----------------|-------------------|-----------------|-------------------|
 |--7p5----7p5-----|--7p=5-----7p5-----|--7p5----7p5-----|--7p=5-----7p5-----|
 |------0------0---|-------0-------0---|------0------0---|-------0-------0---|
 |-----------------|-------------------|-----------------|-------------------|
 |-----------------|-------------------|-----------------|-------------------|

|
| E E Q E E E E +Q E E E E E E E E Q E E E E +Q E E E E E E
 
 |-----------------|-----------------0-|-----------------|-----------------0-|
 |--6------------6-|-(6)-----6---------|--6------------6-|-(6)-----6---------|
 |----5----7p5-----|-----------7p5-----|----5----7p5-----|-----------7p5-----|
 |------0------0---|-------0-------0---|------0------0---|-------0-------0---|
 |-----------------|-------------------|-----------------|-------------------|
 |-----------------|-------------------|-----------------|-------------------|

+W +W
| |
[/] [/]  
+W +W
 
 |-----------------|-------------------|
 |-----------------|-------------------|
 |-(7)-------------|-(7)---------------|
 |-(0)-------------|-(0)---------------|
 |-----------------|-------------------|
 |-----------------|-------------------|

|
| E E Q E E Q E E Q E E E E
 
 |-----------------|-----------------0-|
 |-----------------|-------------------|
 |--7p5----7p5-----|--7p=5-----7p5-----|
 |------0------0---|-------0-------0---|
 |-----------------|-------------------|
 |-----------------|-------------------|

|
| E E Q E E E E +Q E E E E E E
 
 |-----------------|-----------------0-|
 |--6------------6-|-(6)-----6---------|
 |----5----7p5-----|-----------7p5-----|
 |------0------0---|-------0-------0---|
 |-----------------|-------------------|
 |-----------------|-------------------|

+W W W W
|
[/]  
Gtr II
W W W W
 
 |------------------|-------------------|-----------------|-----------------|
 |------------------|-------------------|-----------------|-----------------|
 |--7---------------|-------------------|-----------------|-----------------|
 |--0---------------|-------------------|-----------------|-----------------|
 |------------------|-------------------|-----------------|-----------------|
 |------------------|-------------------|-----------------|-----------------|

|
| Gtr I
| E E E E E E Q E E Q E E Q E E E E E E E E E E E E E E E E
 
 |--------0---------|-------------------|-------0-------0-|-------0-------0-|
 |----------6-------|-------------------|-----------------|-----------------|
 |--7p5-------5-----|-7p5------7p=5-----|-7p5-----7p5-----|-7p5-----7p5-----|
 |------0-------0---|-----0---------0---|-----0-------0---|-----0-------0---|
 |------------------|-------------------|-----------------|-----------------|
 |------------------|-------------------|-----------------|-----------------|

|
| Gtr IV
| E E E E E E E E E E E E +Q E E Q E E Q E E Q E E Q E E
 
 |--------0-------0-|-------------------|-------0-------0-|-------0-------0-|
 |----------6-------|-------6-(6)-----6-|-6-------6-------|-6-------6-------|
 |--7p5-------5-----|-7p5---------------|-----------------|-----------------|
 |------0-------0---|-----0---------0---|-----0-------0---|-----0-------0---|
 |------------------|-------------------|-----------------|-----------------|
 |------------------|-------------------|-----------------|-----------------|

Gtr I
[E] [E] [E] [E] [E] [E] [E] [E] [E] [E] [E] [E] [E] [E] [E] [E] [E] [E] [E] [E] [E] [E] [E] [E] [E] [E] [E] [E] [E] [E] [E] [E]  
 
 |-------0-------0-|-------0-------0-|-------0-------0-|-------0-------0-*|
 |-----------------|-----------------|-----------------|-----------------*|
 |-7p5-----7p5-----|-7p5-----7p5-----|-7p5-----7p5-----|-7p5-----7p5-----*|
 |-----0-------0---|-----0-------0---|-----0-------0---|-----0-------0---*|
 |-----------------|-----------------|-----------------|-----------------*|
 |-----------------|-----------------|-----------------|-----------------*|

|
| Gtr IV
| Q E E Q E E Q E E Q E E Q E E Q E E Q E E Q E E
 
 |-------0-------0-|-------0-------0-|-------0-------0-|-------0-------0-*|
 |-6-------6-------|-6-------6-------|-6-------6-------|-6-------6-------*|
 |-----------------|-----------------|-----------------|-----------------*|
 |-----0-------0---|-----0-------0---|-----0-------0---|-----0-------0---*|
 |-----------------|-----------------|-----------------|-----------------*|
 |-----------------|-----------------|-----------------|-----------------*|
 --------------------------------------------------------------------------------

Duration Legend
 
 ---------------
 W - whole; H - half; Q - quarter; E - 8th; S - 16th; T - 32nd; X - 64th; a - acciaccatura

+ - note tied to previous; . - note dotted; .. - note double dotted
Uncapitalized letters represent notes that are staccato (1/2 duration)
Irregular groupings are notated above the duration line
Duration letters will always appear directly above the note/fret number it represents the
duration for. Duration letters with no fret number below them represent rests. Multi-
bar rests are notated in the form Wxn, where n is the number of bars to rest for. Low
melody durations appear below the staff
Tablature Legend
 
 ----------------

h - hammer-on
p - pull-off
b - bend
pb - pre-bend
r - bend release (if no number after the r, then release immediately)
/\ - slide into or out of (from/to "nowhere")
s - legato slide
S - shift slide
- natural harmonic
(n) - artificial harmonic
n(n) - tapped harmonic
~ - vibrato
tr - trill
T - tap
TP - trem. picking
PM - palm muting
\n/ - tremolo bar dip; n = amount to dip
\n - tremolo bar down
n/ - tremolo bar up
/n\ - tremolo bar inverted dip
= - hold bend; also acts as connecting device for hammers/pulls
- volume swell (louder/softer)
x - on rhythm slash represents muted slash
o - on rhythm slash represents single note slash
Misc Legend
 
 -----------

| - bar
|| - double bar
||o - repeat start
o|| - repeat end
*| - double bar (ending)
: - bar (freetime)
$ - Segno
& - Coda
Tempo markers - = BPM(8/16=s8/s16), where s8 = swing 8ths, s16 = swing 16ths

Important: The song above is NOT stored on the Chordie server. The original song is hosted at www.guitaretab.com. Chordie works as a search engine and provides on-the-fly formatting. Chordie does not index songs against artists'/composers' will. To remove this song please click here.

Text color:
Chord color:
Chord grids: 
Font size:    
Page size: 

D5 E
Rate #1 of 1 versions

Jango Player

Login - add to songbook

SHARE PAGE  



You need to log in to post comments