Guitar Tabs, Chords and Lyrics
Update 25:10. 13:00. Site is back up running again. Songbooks are recovered. Woring on getting search back up..


Have You Ever Seen the Rain?  Creedence Clearwater Revival

 
 ----------------------------------------------------------------------------

Have You Ever Seen the Rain - Creedence Clearwater Revival
 
 ----------------------------------------------------------------------------

Tabbed by: Dave S.
Email: Pirme-Prine@hotmail.com
Tuning: Standard
Intro:
[Am]. . . [C]. . .
 
 e|--0-0-0--0-0-0--0-0--|--1-1-1-1--1--1--|--0-0-0--0-0-0--0-0--|
 B|--1-1-1--1-1-1--1-1--|--1-1-1-1--1--1--|--1-1-1--1-1-1--1-1--|
 G|--2-2-2--2-2-2--2-2--|--2-2-2-2--2--2--|--0-0-0--0-0-0--0-0--|
 D|--2-2-2--2-2-2--2-2--|--3-3-3-3--2--3--|--2-2-2--2-2-2--2-2--|
 A|--0-0-0--0-0-0--0-0--|--3-3-3-3--3--3--|--3-3-3--3-3-3--3-3--|
 E|---------------------|--1-1-1-1--1--1--|--3-3-3--3-3-3--3-3--|

Guitar
[G] [C]  
 
 e|--3-3-3-3--3-3--|--0-0-0-0-0-0-0--|--0-0-0-0-0-0-0-0--|
 B|--0-0-0-0--0-0--|--1-1-1-1-1-1-1--|--1-1-1-1-1-1-1-1--|
 G|--0-0-0-0--0-0--|--0-0-0-0-0-0-0--|--0-0-0-0-0-0-0-0--|
 D|--0-0-0-0--0-0--|--2-2-2-2-2-2-2--|--2-2-2-2-2-2-2-2--|
 A|--2-2-2-2--2-2--|--3-3-3-3-3-3-3--|--3-3-3-3-3-3-3-3--|
 E|--3-3-3-3--3-3--|-----------------|-------------------|

|Piano
 
 e|----------------|-----------------|-------------------|
 B|----------------|-----------------|-------------------|
 G|--2--0----------|-----------------|--5--4--2----------|
 D|--------2-2-----|-----------------|------------5-5----|
 A|----------------|--3--------------|-------------------|
 E|-------------3--|-----------------|-------------------|

Verse:
[C]  
 
 e|-0-0-0-0-0-0-0-0-|-0-0-0-0-0-0-0-0-|-0-0-0-0-0-0-0-0-|-0-0-0-0-0-0-0-0-|
 B|-1-1-1-1-1-1-1-1-|-1-1-1-1-1-1-1-1-|-1-1-1-1-1-1-1-1-|-1-1-1-1-1-1-1-1-|
 G|-0-0-0-0-0-0-0-0-|-0-0-0-0-0-0-0-0-|-0-0-0-0-0-0-0-0-|-0-0-0-0-0-0-0-0-|
 D|-2-2-2-2-2-2-2-2-|-2-2-2-2-2-2-2-2-|-2-2-2-2-2-2-2-2-|-2-2-2-2-2-2-2-2-|
 A|-3-3-3-3-3-3-3-3-|-3-3-3-3-3-3-3-3-|-3-3-3-3-3-3-3-3-|-3-3-3-3-3-3-3-3-|
 E|-----------------|-----------------|-----------------|-----------------|

|Piano
 
 e|-----------------|-----------------|-----------------|-----------------|
 B|-----------------|-----------------|-----------------|-----------------|
 G|-----------------|-----------------|-----------------|-----------------|
 D|-----------------|-----------------|-----------------|-----------------|
 A|--3--------------|-----------------|-----------------|-----------------|
 E|-----------------|-----------------|-----------------|-----------------| 

[G] [C]  
 
 e|-3-3-3-3-3-3-3-3-|-3-3-3-3-3-3-3-3-|-0-0-0-0-0-0-0-0-|-0-0-0-0-0-0-0-0-|
 B|-0-0-0-0-0-0-0-0-|-0-0-0-0-0-0-0-0-|-1-1-1-1-1-1-1-1-|-1-1-1-1-1-1-1-1-|
 G|-0-0-0-0-0-0-0-0-|-0-0-0-0-0-0-0-0-|-0-0-0-0-0-0-0-0-|-0-0-0-0-0-0-0-0-|
 D|-0-0-0-0-0-0-0-0-|-0-0-0-0-0-0-0-0-|-2-2-2-2-2-2-2-2-|-2-2-2-2-2-2-2-2-|
 A|-2-2-2-2-2-2-2-2-|-2-2-2-2-2-2-2-2-|-3-3-3-3-3-3-3-3-|-3-3-3-3-3-3-3-3-|
 E|-3-3-3-3-3-3-3-3-|-3-3-3-3-3-3-3-3-|-----------------|-----------------|

[C]  
 
 e|-0-0-0-0-0-0-0-0-|-0-0-0-0-0-0-0-0-|-0-0-0-0-0-0-0-0-|-0-0-0-0-0-0-0-0-|
 B|-1-1-1-1-1-1-1-1-|-1-1-1-1-1-1-1-1-|-1-1-1-1-1-1-1-1-|-1-1-1-1-1-1-1-1-|
 G|-0-0-0-0-0-0-0-0-|-0-0-0-0-0-0-0-0-|-0-0-0-0-0-0-0-0-|-0-0-0-0-0-0-0-0-|
 D|-2-2-2-2-2-2-2-2-|-2-2-2-2-2-2-2-2-|-2-2-2-2-2-2-2-2-|-2-2-2-2-2-2-2-2-|
 A|-3-3-3-3-3-3-3-3-|-3-3-3-3-3-3-3-3-|-3-3-3-3-3-3-3-3-|-3-3-3-3-3-3-3-3-|
 E|-----------------|-----------------|-----------------|-----------------|

[G] [C]  
 
 e|-3-3-3-3-3-3-3-3-|-3-3-3-3-3-3-3-3-|-0-0-0-0-0-0-0-0-|-0-0-0-0-0-0-0-0-|
 B|-0-0-0-0-0-0-0-0-|-0-0-0-0-0-0-0-0-|-1-1-1-1-1-1-1-1-|-1-1-1-1-1-1-1-1-|
 G|-0-0-0-0-0-0-0-0-|-0-0-0-0-0-0-0-0-|-0-0-0-0-0-0-0-0-|-0-0-0-0-0-0-0-0-|
 D|-0-0-0-0-0-0-0-0-|-0-0-0-0-0-0-0-0-|-2-2-2-2-2-2-2-2-|-2-2-2-2-2-2-2-2-|
 A|-2-2-2-2-2-2-2-2-|-2-2-2-2-2-2-2-2-|-3-3-3-3-3-3-3-3-|-3-3-3-3-3-3-3-3-|
 E|-3-3-3-3-3-3-3-3-|-3-3-3-3-3-3-3-3-|-----------------|-----------------|

Chorus
[F] [G] [C] [C/B] [Am] [Am/G]  
 
 e|-1-1-1-1-1-1-1-1-|-3-3-3-3-3-3-3-3-|-0-0-0-0-0-0-0-0-|-0-0-0-0-0-0-0-0-|
 B|-1-1-1-1-1-1-1-1-|-0-0-0-0-0-0-0-0-|-1-1-1-1-1-1-1-1-|-1-1-1-1-1-1-1-1-|
 G|-2-2-2-2-2-2-2-2-|-0-0-0-0-0-0-0-0-|-0-0-0-0-0-0-0-0-|-2-2-2-2-2-2-2-2-|
 D|-3-3-3-3-3-3-3-3-|-0-0-0-0-0-0-0-0-|-2-2-2-2-0-0-0-0-|-2-2-2-2-2-2-2-2-|
 A|-3-3-3-3-3-3-3-3-|-2-2-2-2-2-2-2-2-|-3-3-3-3-2-2-2-2-|-0-0-0-0-x-x-x-x-|
 E|-1-1-1-1-1-1-1-1-|-3-3-3-3-3-3-3-3-|-----------------|---------3-3-3-3-|

[F] [G] [C] [C/B] [Am] [Am/G]  
 
 e|-1-1-1-1-1-1-1-1-|-3-3-3-3-3-3-3-3-|-0-0-0-0-0-0-0-0-|-0-0-0-0-0-0-0-0-|
 B|-1-1-1-1-1-1-1-1-|-0-0-0-0-0-0-0-0-|-1-1-1-1-1-1-1-1-|-1-1-1-1-1-1-1-1-|
 G|-2-2-2-2-2-2-2-2-|-0-0-0-0-0-0-0-0-|-0-0-0-0-0-0-0-0-|-2-2-2-2-2-2-2-2-|
 D|-3-3-3-3-3-3-3-3-|-0-0-0-0-0-0-0-0-|-2-2-2-2-0-0-0-0-|-2-2-2-2-2-2-2-2-|
 A|-3-3-3-3-3-3-3-3-|-2-2-2-2-2-2-2-2-|-3-3-3-3-2-2-2-2-|-0-0-0-0-x-x-x-x-|
 E|-1-1-1-1-1-1-1-1-|-3-3-3-3-3-3-3-3-|-----------------|---------3-3-3-3-|

[F] [G] [C]  
 
 e|-1-1-1-1-1-1-1-1-|-3-3-3-3-3-3-3-3-|-0-0-0-0-0-0-0-0-|-0-0-0-0-0-0-0-0-|
 B|-1-1-1-1-1-1-1-1-|-0-0-0-0-0-0-0-0-|-1-1-1-1-1-1-1-1-|-1-1-1-1-1-1-1-1-|
 G|-2-2-2-2-2-2-2-2-|-0-0-0-0-0-0-0-0-|-0-0-0-0-0-0-0-0-|-0-0-0-0-0-0-0-0-|
 D|-3-3-3-3-3-3-3-3-|-0-0-0-0-0-0-0-0-|-2-2-2-2-2-2-2-2-|-2-2-2-2-2-2-2-2-|
 A|-3-3-3-3-3-3-3-3-|-2-2-2-2-2-2-2-2-|-3-3-3-3-3-3-3-3-|-3-3-3-3-3-3-3-3-|
 E|-1-1-1-1-1-1-1-1-|-3-3-3-3-3-3-3-3-|-----------------|-----------------|

|Piano
 
 e|-----------------|-----------------|-----------------|-----------------|
 B|-----------------|-----------------|-----------------|-----------------|
 G|-----------------|-----------------|-----------------|-5--4--2---------|
 D|-----------------|-----------------|-----------------|-----------5-5---|
 A|-----------------|-----------------|-----------------|-----------------|
 E|-----------------|-----------------|-----------------|-----------------|

Repeat Verse 1x
Repeat Chorus 2x
Outro
[C] [G] [C]  
 
 e|-0-0-0-0-0-0-0-0-|-3-3-3-3-3-3-3-3-|-0---------------||
 B|-1-1-1-1-1-1-1-1-|-0-0-0-0-0-0-0-0-|-1---------------||
 G|-0-0-0-0-0-0-0-0-|-0-0-0-0-0-0-0-0-|-0---------------||
 D|-2-2-2-2-2-2-2-2-|-0-0-0-0-0-0-0-0-|-2---------------||
 A|-3-3-3-3-3-3-3-3-|-2-2-2-2-2-2-2-2-|-3---------------||
 E|-----------------|-3-3-3-3-3-3-3-3-|-----------------||

|Piano
 
 e|-----------------|-----------------|-----------------||
 B|-----------------|-----------------|-----------------||
 G|-----------------|-2--0------------|-----------------||
 D|-----------------|--------2-2------|-----------------||
 A|-----------------|-----------------|-3---------------||
 E|-----------------|-------------3---|-----------------||

| / slide up
| \ slide down
| h hammer-on
| p pull-off
| ~ vibrato
| + harmonic
| x Mute note
===========================================================================

Important: The song above is NOT stored on the Chordie server. The original song is hosted at www.guitaretab.com. Chordie works as a search engine and provides on-the-fly formatting. Chordie does not index songs against artists'/composers' will. To remove this song please click here.

Text color:
Chord color:
Chord grids: 
Font size:    
Page size: 

Am C C/B F G
Rate #2 of 14 versions

Login - add to songbook

SHARE PAGE  



You need to log in to post comments