Guitar Tabs, Chords and Lyrics
Server problems seems to be fixed. Chordie has been experiencing problems with songs disappearing. These issues now seems to be fixed, but still verifying the fix. If you find anything strange, please email admin@chordie.com.


Abigor  Cryptopsy

ABIGOR - Cryptopsy - Blasphemy Made Flesh
Rhythm Guitar Transcribed on Bass
Tuning (Low - High): B E D A
Segue in from Defenestration
A1 Play 2 times
 
 |------------------|
 |-----9988---------|
 |-7766----77--66---|
 |-----------77--77-|

A2 Play 2 times
 
 |------------------|
 |-----7766---------|
 |-5544----55--44---|
 |-----------55--55-|

Repeat A1 x 2, A2 x 2, A1 x 2, A2
Fill 1
 
 |------------------|
 |-----7766-7---6---|
 |-5544-----5-5-4-3-|
 |------------3---1-| 

pm.....
B1 Play 4 times
 
 |------------------|
 |------------4-3---|
 |---2211-----2-1-5-|
 |-00----3300-----3-|

[B2]  
 
 |-------------|-------------|
 |---1---4-3---|---1---4-3---|
 |---1---2-1-5-|---1---2-1-5-|
 |-00--0-----3-|-00--0-----3-|

pm . .. .
Repeat B1 x 2, A1 x 2, A2 x 2, A1 x 2, A2 x 2
[C1] 1,2,3 4
 
 |------------------|------------------|
 |------------------|------------------|
 |-77777777----8888-|-77777777---------|
 |---------7777-----|---------77777777-|

[C2] 1,2,3 4
 
 |------------------|------------------|
 |------------------|------------------|
 |-55555555----6666-|-55555555---------|
 |---------5555-----|---------55555555-|

[C3] 1,2,3 4
 
 |--------------|-----|
 |-9------10-10-|-9---|
 |-7--8-8-8--8--|-7-9-|
 |----7-7-------|---7-|

pm......
[C4] 1,2,3 4
 
 |------------|-----|
 |-7------8-8-|-7---|
 |-5--7-7-6-6-|-5-7-|
 |----5-5-----|---5-|

pm.....
Repeat (C3+C4)
Guitar 1 plays C3
C5 (guitar 2)
1,2,3 4
 
 |-9--9--10--|-12-10-9-10-9---------|
 |--99-99--9-|--------------12-10-9-|
 |-----------|----------------------|
 |-----------|----------------------|

Guitar 1 plays C4
C6 (guitar 2)
1,2,3 4
 
 |-7--8--7--|-10-8-7-8-7--------|
 |--77-77-8-|------------10-8-7-|
 |----------|-------------------|
 |----------|-------------------|

Repeat (C3&C5), (C4&C6)
Fill 2 (bass)
 
 |----?--------------------------------|
 |----?--------------------------5-----|
 |----?------------------2-5-------5---|
 |----?--------------0-3-----6-3-----6-|

Fill 2 (guitars)
 
 |-------------------------------------|
 |-------------------------------5-----|
 |-----------------------2-5-------5---|
 |-------------------0-3-----6-3-----6-|

D Play 7 times
 
 |-----------------------------------------------------|
 |---------------4\1---5-------------------------5-----|
 |-4------3------2\1---3-----4------5------5-------5---|
 |-2-0000-1-0000-----0--0000-2-0000-3-0000---6-3-----6-|

pm.. pm.. pm pm.. pm.. pm..
Repeat A1 x 2, A2 x 2, A1 x 2, A2 x 2
Repeat (C3&C5), (C4&C6)
Guitar 1 plays C3
E1 (guitar 2) Play 4 times
 
 |-16----------------------|
 |----17-16-17-16----16----|
 |----------------17----17-|
 |-------------------------|

Guitar 1 plays C4
E2 (guitar 2) Play 4 times
 
 |-14----------------------|
 |----15-14-15-14----14----|
 |----------------15----15-|
 |-------------------------|

Repeat (C3&E1), (C4&E2)
Repeat (C3+C4) x 2 (under solo)
Guitar solo
 
 |-------------------------|
 |-------------------------|
 |-------------------------|
 |-------------------------|
 |-------------------------|
 |-------------------------|

Outro Play 4 times
 
 |----------------------|-------------------------|
 |----------------------|-----------------------3-|
 |---------2222---------|---------2222-----5--4-1-|
 |-33332222----11111111-|-33332222----1111-3--2---|

pm....
Fill 3
 
 |----------------------|--------------------------|
 |----------------------|------------------------3-|
 |---------2222---------|---------2222-----5--4--1-|
 |-33332222----11111111-|-33332222----1111-3--2----|

pm.....
Ok that's two down, 8 to go!
Lal :)
 
 --------------------

chtorran@hotmail.com

Important: The song above is NOT stored on the Chordie server. The original song is hosted at www.guitaretab.com. Chordie works as a search engine and provides on-the-fly formatting. Chordie does not index songs against artists'/composers' will. To remove this song please click here.

Text color:
Chord color:
Chord grids: 
Font size:    
Page size: 

B2 C2 C3 C4
Rate #1 of 2 versions

Jango Player

Login - add to songbook

SHARE PAGE  




You need to log in to post comments